Song name
# A B C D E F G H I J K L M N O P Q R S T U V W X Y Z

Misc Unsigned Bands - Pearl Kyoudai - Kyou Wa Yuuhi Yarou tab

-------------------------------------------------------------------------------
			     Kyou wa Yuuhi Yarou - Pearl Kyoudai
-------------------------------------------------------------------------------
Tabbed by: XCrusherX@gmail.com

Tuning: Standard

From the OST of the wonderful 'Welcome to the NHK', I hope it's good enough :). 
Listen to the song for the timing and the playing style. I couldn't manage to transcribe that. 



e-------------------------------------------------|
b-------2------------2------------2------------0--|
g-----3------------3------------3------------1----| x2
D---1------------1------------0------------0------|
A-2------------2----------------------------------|
E---------------------------0------------0--------|
(let every note ring)



e----------------------------------------------------|
b--2-----2-----2-----2-------2-----2-----2-----2-----|
g--3-----3-----3-----3-------3-----3-----3-----3-----|
D----------------------------------------------------|
A--2-------------------------2-----------------------|
E--------------2-------------------------2-----------|
(let the low notes ring)

e----------------------------------------------------|
b--2-----2-----0-----0-------2-----2-----0-----0-----|
g--3-----3-----1-----1-------3-----3-----1-----1-----|
D----------------------------------------------------|
A--4-----4-------------------4-----4-----------------|
E--------------0-----0-------------------0-----0-----|

e----------------------------------------------------|
b--2-----2-----2-----2-------2-----2-----2-----2-----|
g--3-----3-----3-----3-------3-----3-----3-----3-----|
D--------------------1-------------------------1-----|
A--2-------------------------2-----------------------|
E--------------2-------------------------2-----------|

e-------------------------------------------------|
b--2-----2-----0-----0-------2-----2-----0-----2--|
g--3-----3-----1-----1-------3-----3-----1-----3--|
D-------------------------------------------------|
A--4-----4-------------------4-----4-----------0--|
E--------------0-----0-------------------3--------|

e-------------------------------0-------------------------|
b----------3------------------3-------3--------------3----|
g----------4-------4--4---------------4-----4--4-----4--4-|
D------------------4--5---------------------5--5--------5-|
A-0---2---------2--2--------------------------------------|
E---------------------0----0--------0----0--3-----3-------|


e-----------------------------------------------------|
b--2-------------2---------------3----5--5--6-----6\--|
g--2---2---------2--4--4--x-4----4----4--4--7-----7\--|
D------2------2-----5--5--x-5-------------------------|
A-------------------------------------0--0------------|
E--2------2---------0-----x-3--3----3-------6--6------|


e-------------------------------------|
b-----3-----3-----3-------------------|
g-----4-----4-----4----4--------4-----|
D----------------------5-----6--------|
A--2-----2-----2-------------5--------|
E-----------------0--0----0--------0--|

e------------------------------------|
b-----------2--3---2---------2-------|
g-----4-----2--2---2---2-----2-------|
D-----5-------------------2----------|
A------------------0---0-----------0-|
E--3-----3---------------------------|

e-------------------------------------------------|
b-------2------------2------------2------------0--|
g-----3------------3------------3------------1----| x2
D---1------------1------------0------------0------|
A-2------------2----------------------------------|
E---------------------------0------------0--------|

e--------------2--||
b-----------4-----||
g--------4--------||
D-----4-----------||
A--2--------------||
E-----------------||





************************************

| /   slide up
| \   slide down
| h   hammer-on
| p   pull-off
| ~   vibrato
| +   harmonic
| x   Mute note
| b   Bend
| pb  Pre-bend
| br  Bend release
| pbr Pre-bend release
| brb Bend release bend

************************************
Tap to rate this tab
 
# A B C D E F G H I J K L M N O P Q R S T U V W X Y Z