Song name
# A B C D E F G H I J K L M N O P Q R S T U V W X Y Z

Misc Unsigned Bands - Mike Thomas - My Friend Is A Pro Acoustic tab

Look for "My friend is a pro" for the original, "My friend is a pro acoustic"
gives you this version by mike thomas, pretty good, im working on a gp5 tab for it with 
the solo and the voice.

Important for playing along to the song is the capo at the 1st fret!
You'll get the rythm if you listen to it.

Rythm (Capo 1)
     Q    E  H        E
E||----------------------|
B||----------0--------L--|
G||-------2--------------|
D||----------------------|
A||--0-------------------|
E||----------------------|


  Q    E  Q    Q    E
----------0------------|
---------------0-------|
-------2------------2--|
--2--------------------|
-----------------------|
-----------------------|


  E  E  E  E  E  E  E  E     H
--------------0--0--------|-----------|
-----------0-----0--0-----|-----------|
--------1-----------1--1--|-----------|
-----2--------------------|--2--------|
--2-----------------------|-----------|
--------------------------|-----------|


  E6
  ^
  Q    E  E.  E.  E  E
--0----L--0-------------|
--0----L--0-------x--x--|
--6----L--6-------x--x--|
--6----x--6-------x--x--|
--4----x--4-------x--x--|
------------------x--x--|


  Asus2
  ^     ^  v
  Q     E  E.  E.  E  E
--0--------0-------------|
--0--------0-------------|
--x-----x--x-------------|
--7-----x--7-------x--x--|
--7-----x--7-------x--x--|
--5--------5-------x--x--|


  E
  Q    E  E.  E.  E  E
--0-------0-------------|
--0-------0-------------|
--9-------9-------x--x--|
--9----x--9-------x--x--|
--7----x--7-------x--x--|
------------------------|


  B
  Q    E  E.  E.  E  E
--0-------0-------------|
--0----L--0-------------|
--4----L--4-------x--x--|
--4----x--4-------x--x--|
--2----x--2-------x--x--|
------------------------|


  E6
  ^
  Q    E  E.  E.  E  E
--0-------0-------------|
--0-------0-------x--x--|
--6-------6-------x--x--|
--6----x--6-------x--x--|
--4----x--4-------x--x--|
------------------x--x--|


  Asus2
  ^     ^  v
  Q     E  E.  E.  E  E
--0--------0-------------|
--0--------0-------------|
--x-----x--x-------------|
--7-----x--7-------x--x--|
--7-----x--7-------x--x--|
--5--------5-------x--x--|


  E
  Q    E  E.  E.  E  E
--0-------0-------------|
--0-------0-------------|
--9-------9-------x--x--|
--9----x--9-------x--x--|
--7----x--7-------x--x--|
------------------------|


  B
  Q    E  E.  E.  E  E
--0-------0-------------|
--0-------0-------------|
--4-------4-------x--x--|
--4----x--4-------x--x--|
--2----x--2-------x--x--|
------------------------|


  E6
  ^
  Q    E  E.  E.  E  E
--0-------0-------------|
--0-------0-------x--x--|
--6-------6-------x--x--|
--6----x--6-------x--x--|
--4----x--4-------x--x--|
------------------x--x--|


  Asus2
  ^     ^  v
  Q     E  E.  E.  E  E
--0--------0-------------|
--0--------0-------------|
--x-----x--x-------------|
--7-----x--7-------x--x--|
--7-----x--7-------x--x--|
--5--------5-------x--x--|


  E
  Q    E  E.  E.  E  E
--0-------0-------------|
--0-------0-------------|
--9-------9-------x--x--|
--9----x--9-------x--x--|
--7----x--7-------x--x--|
------------------------|


  B
  Q    E  E.  E.  E  E
--0-------0-------------|
--0-------0-------------|
--4-------4-------x--x--|
--4----x--4-------x--x--|
--2----x--2-------x--x--|
------------------------|


  E6
  ^
  Q    E  E.  E.  E  E
--0-------0-------------|
--0-------0-------x--x--|
--6-------6-------x--x--|
--6----x--6-------x--x--|
--4----x--4-------x--x--|
------------------x--x--|


  Asus2
  ^     ^  v
  Q     E  E.  E.  E  E
--0--------0-------------|
--0--------0-------------|
--x-----x--x-------------|
--7-----x--7-------x--x--|
--7-----x--7-------x--x--|
--5--------5-------x--x--|


  E
  Q    E  E.  E.  E  E
--0-------0-------------|
--0-------0-------------|
--9-------9-------x--x--|
--9----x--9-------x--x--|
--7----x--7-------x--x--|
------------------------|


  B
  Q    E  E.  E.  E  E
--0-------0-------------||
--0-------0-------------||
--4-------4-------x--x--||
--4----x--4-------x--x--||
--2----x--2-------x--x--||
------------------------||




Duration Legend
---------------
W - whole
H - half
Q - quarter
E - 8th
S - 16th
T - 32nd
X - 64th
. - note dotted
|-n-|  - n-tuplets


Tablature Legend
----------------
L - tied note
x - dead note
g - grace note
(n) - ghost note
> - accentuded note
NH - natural harmonic
AH - artificial harmonic
TH - tapped harmonic
SH - semi harmonic
PH - pitch harmonic
h - hammer on
p - pull off
b - bend
br - bendRelease
pb - preBend
pbr - preBendRelease
brb - bendReleaseBend
\n/ - tremolo bar dip
\n - tremolo bar dive
-/n - tremolo bar Release up
/n\ - tremolo bar inverted dip
/n - tremolo bar return
-\n - tremolo bar Release down
S - shift slide
s - legato slide
/ -  slide into from below or out of upwards
\ -  slide into from above or out of downwards
~ - vibrato
W - wide vibrato
tr - trill
TP - tremolo picking
T - tapping
S - slap
P - pop
< - fade in
^ - brush up
v - brush down
Tap to rate this tab
 
# A B C D E F G H I J K L M N O P Q R S T U V W X Y Z