Song name
# A B C D E F G H I J K L M N O P Q R S T U V W X Y Z

Misc Unsigned Bands - Toxic Sky - Untitled tab

This is the acoustic guitar part.
The tuning is Open G
             E  E  E  Q    Q.        E  E  E  Q    Q.      
D||-------|-----------3----2------|-----------3----2------|
B||-------|-----3-----------------|-----3-----------------|
G||-------|--------2--------------|--------2--------------|
D||-------|--0--------------------|--0--------------------|
G||-------|-----------------------|-----------------------|
D||-------|-----------------------|-----------------------|


  E  E  E  Q    E  E  E     E  E  E  E  E  E  E  E     E  E  E  Q    E  E  E   
-----------3----2--------|--------------------------|-----------3----2--------|
-----3-------------3-----|-----3--------3--------3--|-----3-------------3-----|
--------2-------------2--|--------0--------0--------|--------2-------------2--|
--0----------------------|--------------------------|--0----------------------|
-------------------------|--3--------2--------------|-------------------------|
-------------------------|--------------------3-----|-------------------------|


  E  E  E  E  E  E  E  E     E  E  E  Q    E  E  E     E  E  E  E  E  E  E  E   
--------------------------|-----------3----------5--|--------5-----------7-----|
-----3--------3--------3--|-----3----------3--------|--3--------3-----3-----3--|
--------0--------0--------|--------2----------------|-----2--------2-----------|
--------------------------|--0----------------0-----|--------------------------|
--3--------2--------------|-------------------------|--------------------------|
--------------------3-----|-------------------------|--------------------------|


  E  E  E  E  E  E  E  E     E  E  E  E  E  E  E  E     H        E  E  E  E   
--------7-----------5-----|--------3--------3--------|--2--------------------|
-----3-----3-----3-----3--|-----5-----3--------2-----|--2--------------------|
--3-----------3-----------|--3-----------2--------2--|--2-----------------0--|
--------------------------|--------------------------|-----------------------|
--------------------------|--------------------------|-----------0--2--3-----|
--------------------------|--------------------------|-----------------------|


  E  E  E  E  E  Q.        E  E  E  Q    E  E  E     E  E  E  E  E  E  E  E   
------------------------|-----------3----2--------|--------------------------|
--3--------3-----3------|-----3-------------3-----|-----3--------3--------3--|
--------0---------------|--------2-------------2--|--------0--------0--------|
------------------------|--0----------------------|--------------------------|
-----2--------0---------|-------------------------|--3--------2--------------|
------------------------|-------------------------|--------------------3-----|


  E  E  E  Q    E  E  E     E  E  E  E  E  E  E  E     E  E  E  Q    E  E  E   
-----------3----2--------|--------------------------|-----------3----------5--|
-----3-------------3-----|-----3--------3--------3--|-----3----------3--------|
--------2-------------2--|--------0--------0--------|--------2----------------|
--0----------------------|--------------------------|--0----------------0-----|
-------------------------|--3--------2--------------|-------------------------|
-------------------------|--------------------3-----|-------------------------|


  E  E  E  E  E  E  E  E     E  E  E  E  E  E  E  E   
--------5-----------7-----|--------7-----------5-----|
--3--------3-----3-----3--|-----3-----3-----3-----3--|
-----2--------2-----------|--3-----------3-----------|
--------------------------|--------------------------|
--------------------------|--------------------------|
--------------------------|--------------------------|


  E  E  E  E  E  E  E  E     H        E  E  E  E     E  E  E  E  E  Q.      
--------3--------3--------|--2--------------------|------------------------|
-----5-----3--------2-----|--2--------------------|--3--------3-----3------|
--3-----------2--------2--|--2-----------------0--|--------0---------------|
--------------------------|-----------------------|------------------------|
--------------------------|-----------0--2--3-----|-----2--------0---------|
--------------------------|-----------------------|------------------------|


  Q    Q    Q    Q       E  E  E  E  E  E  E  E     E   E  E   E  E  E  E  E    
-----------------3----|--------7-----------7-----|------------10---------------|
------------3---------|-----3-----3-----3-----3--|---------5------5-----5------|
-------2--------------|--3-----------3-----------|--3S--5------------5-----5S--|
--0-------------------|--------------------------|-----------------------------|
----------------------|--------------------------|-----------------------------|
----------------------|--------------------------|-----------------------------|


  E  E   E  E  E  E   Q       E  E  E  E  E  E  E  E   
--------12-----------12----|--------7-----------7-----|
-----7------7-----7--------|-----3-----3-----3-----3--|
--7------------7-----------|--3-----------3-----------|
---------------------------|--------------------------|
---------------------------|--------------------------|
---------------------------|--------------------------|


  E   E  E   E  E  E  E  E      E  E   E  E  E  E   Q     
------------10---------------|--------12-----------12----|
---------5------5-----5------|-----7------7-----7--------|
--3S--5------------5-----5S--|--7------------7-----------|
-----------------------------|---------------------------|
-----------------------------|---------------------------|
-----------------------------|---------------------------|


  E  E  E  E  E  E  E  E     E   E  E   E  E  E  E  E    
--------7-----------7-----|------------10---------------|
-----3-----3-----3-----3--|---------5------5-----5------|
--3-----------3-----------|--3S--5------------5-----5S--|
--------------------------|-----------------------------|
--------------------------|-----------------------------|
--------------------------|-----------------------------|


  E  E   E  E  E  E   Q       E  E  E  E  E  E  E  E   
--------12-----------12----|--------7-----------7-----|
-----7------7-----7--------|-----3-----3-----3-----3--|
--7------------7-----------|--3-----------3-----------|
---------------------------|--------------------------|
---------------------------|--------------------------|
---------------------------|--------------------------|


                                                            ^                 
  E   E  E   E  E  E  E  E      E  E   E  E  E  E   Q       W                 
------------10---------------|--------12-----------12----|--7----------------|
---------5------5-----5------|-----7------7-----7--------|--3----------------|
--3S--5------------5-----5S--|--7------------7-----------|--3----------------|
-----------------------------|---------------------------|-------------------|
-----------------------------|---------------------------|-------------------|
-----------------------------|---------------------------|-------------------|


   ^                    ^                                                    
   W                    W                    E   E   E   E   E   E   E   E   
--10----------------|--12----------------|--12--12--12--12--12--12--12--12--|
---5----------------|---7----------------|---7---7---7---7---7---7---7---7--|
---5----------------|---7----------------|---7---7---7---7---7---7---7---7--|
--------------------|--------------------|----------------------------------|
--------------------|--------------------|----------------------------------|
--------------------|--------------------|----------------------------------|


   ^                                                               
   W                                       E  E  E  Q    E  E  E   
--12----------------|-------------------|-----------3----2--------|
---7----------------|-------------------|-----3-------------3-----|
---7----------------|-------------------|--------2-------------2--|
--------------------|-------------------|--0----------------------|
--------------------|-------------------|-------------------------|
--------------------|-------------------|-------------------------|


  E  E  E  E  E  E  E  E     E  E  E  Q    E  E  E     E  E  E  E  E  E  E  E   
--------------------------|-----------3----2--------|--------------------------|
-----3--------3--------3--|-----3-------------3-----|-----3--------3--------3--|
--------0--------0--------|--------2-------------2--|--------0--------0--------|
--------------------------|--0----------------------|--------------------------|
--3--------2--------------|-------------------------|--3--------2--------------|
--------------------3-----|-------------------------|--------------------3-----|


  E  E  E  Q    E  E  E     E  E  E  E  E  E  E  E     E  E  E  Q    E  E  E   
-----------3----2--------|--------------------------|-----------3----2--------|
-----3-------------3-----|-----3--------3--------3--|-----3-------------3-----|
--------2-------------2--|--------0--------0--------|--------2-------------2--|
--0----------------------|--------------------------|--0----------------------|
-------------------------|--3--------2--------------|-------------------------|
-------------------------|--------------------3-----|-------------------------|


  E  E  E  E  E  E  E  E     E  E  E  Q    E  E  E     E  E  E  E  E  E  E  E   
--------------------------|-----------3----2--------|--------------------------|
-----3--------3--------3--|-----3-------------3-----|-----3--------3--------3--|
--------0--------0--------|--------2-------------2--|--------0--------0--------|
--------------------------|--0----------------------|--------------------------|
--3--------2--------------|-------------------------|--3--------2--------------|
--------------------3-----|-------------------------|--------------------3-----|


  E  E  E  Q    E  E  E     E  E  E  E  E  E  E  E     E  E  E  Q    E  E  E   
-----------3----2--------|--------------------------|-----------3----2--------|
-----3-------------3-----|-----3--------3--------3--|-----3-------------3-----|
--------2-------------2--|--------0--------0--------|--------2-------------2--|
--0----------------------|--------------------------|--0----------------------|
-------------------------|--3--------2--------------|-------------------------|
-------------------------|--------------------3-----|-------------------------|


  E  E  E  E  E  E  E  E     E  E  E  Q    E  E  E     E  E  E  E  E  E  E  E   
--------------------------|-----------3----2--------|--------------------------|
-----3--------3--------3--|-----3-------------3-----|-----3--------3--------3--|
--------0--------0--------|--------2-------------2--|--------0--------0--------|
--------------------------|--0----------------------|--------------------------|
--3--------2--------------|-------------------------|--3--------2--------------|
--------------------3-----|-------------------------|--------------------3-----|


  E  E  E  Q    E  E  E     E  E  E  E  E  E  E  E     E  E  E  E  E  E  E  E   
-----------3----2--------|--------------------------|--------------3--2--------|
-----3-------------3-----|-----3--------3--------3--|-----3--------------3-----|
--------2-------------2--|--------0--------0--------|--------2--------------2--|
--0----------------------|--------------------------|--0--------0--------------|
-------------------------|--3--------2--------------|--------------------------|
-------------------------|--------------------3-----|--------------------------|




Duration Legend
---------------
W - whole
H - half
Q - quarter
E - 8th
S - 16th
T - 32nd
X - 64th
. - note dotted
|-n-|  - n-tuplets


Tablature Legend
----------------
L - tied note
x - dead note
g - grace note
(n) - ghost note
> - accentuded note
NH - natural harmonic
AH - artificial harmonic
TH - tapped harmonic
SH - semi harmonic
PH - pitch harmonic
h - hammer on
p - pull off
b - bend
br - bendRelease
pb - preBend
pbr - preBendRelease
brb - bendReleaseBend
\n/ - tremolo bar dip
\n - tremolo bar dive
-/n - tremolo bar Release up
/n\ - tremolo bar inverted dip
/n - tremolo bar return
-\n - tremolo bar Release down
S - shift slide
s - legato slide
/ -  slide into from below or out of upwards
\ -  slide into from above or out of downwards
~ - vibrato
W - wide vibrato
tr - trill
TP - tremolo picking
T - tapping
S - slap
P - pop
< - fade in
^ - brush up
v - brush down
Tap to rate this tab
 
# A B C D E F G H I J K L M N O P Q R S T U V W X Y Z