Song name
# A B C D E F G H I J K L M N O P Q R S T U V W X Y Z

Misc Unsigned Bands - Among 47 - Untitled tab

                                         Among 47 - Untitled



This is my band Among 47's song ''Untitled''

Guitar 1: Little amount of distortion on the verse, none in the Intro and Interlude and 
much on the chorus.
Guitar 2: Some distortion trough the song.



Intro


Guitar 1

e-------------------------------------------------------------------------|
B-------------------------------------------------------------------------|
G----4--0-----4--0-----4--0-----4--0-----4--0-----4--0-----4--0-----4--0--|
D-2--------2--------0--------0--------------------------------------------|
A-------------------------------------3--------3--------0--------3--------|
E-------------------------------------------------------------------------|


Guitar 2

e-------------------------------------------------------------------------|
B-------------------------------------------------------------------------|
G-------------------------------------------------------------------------|
D-------------------------------------------------------------------------|
A-------------------------------------------------------------------------|
E-------------------------------------------------------------------------|




Verse


Guitar 1

e-----------------------------------------------------------------|
B-----------------------------------------------------------------|
G-----------------------------------------------------------------|
D-7-7-7-7-7-7-7-7-----------------4-4-4-4-4-4-4-4-----------------|
A-5-5-5-5-5-5-5-5-5-5-5-5-5-5-5-5-2-2-2-2-2-2-2-2-5-5-5-5-5-5-5-5-|
E-----------------3-3-3-3-3-3-3-3-----------------3-3-3-3-3-3-3-3-|
.............................p.m.................................


Guitar 2

e-----------------------------------------------------------------|
B-----------------------------------------------------------------|
G-----------------------------------------------------------------|
D-7-7-7-7-7-7-7-7-----------------4-4-4-4-4-4-4-4-----------------|
A-5-5-5-5-5-5-5-5-5-5-5-5-5-5-5-5-2-2-2-2-2-2-2-2-5-5-5-5-5-5-5-5-|
E-----------------3-3-3-3-3-3-3-3-----------------3-3-3-3-3-3-3-3-|
.............................p.m.................................




Chorus


Guitar 1

e------------------------------------------------------------------|
B------------------------------------------------------------------|
G-7-7-7-7-7-7-7-7-9-9-9-9-9-9-9-9-4-4-4-4-4-4-4-4------------------|
D-7-7-7-7-7-7-7-7-9-9-9-9-9-9-9-9-4-4-4-4-4-4-4-4-5-5-5-5-5-5-5-5--|
A-5-5-5-5-5-5-5-5-7-7-7-7-7-7-7-7-2-2-2-2-2-2-2-2-5-5-5-5-5-5-5-5--|
E-------------------------------------------------3-3-3-3-3-3-3-3--|



Guitar 2

e------------------------------------------------------------------|
B------------------------------------------------------------------|
G-7-7-7-7-7-7-7-7-9-9-9-9-9-9-9-9-4-4-4-4-4-4-4-4------------------|
D-7-7-7-7-7-7-7-7-9-9-9-9-9-9-9-9-4-4-4-4-4-4-4-4-5-5-5-5-5-5-5-5--|
A-5-5-5-5-5-5-5-5-7-7-7-7-7-7-7-7-2-2-2-2-2-2-2-2-5-5-5-5-5-5-5-5--|
E-------------------------------------------------3-3-3-3-3-3-3-3--|



Interlude


Guitar 1

e-------------------------------------------------------------------------|
B-------------------------------------------------------------------------|
G-----0--------0--------0--------0--------0--------0--------0--------0----|
D---9---9----9---9----7---7----7---7----5---5----5---5----5---5----5---5--|
A-7--------7--------5--------5--------3--------3--------0--------3--------|
E-------------------------------------------------------------------------|

Guitar 2
e-------------------------------------------------------------------------|
B-------------------------------------------------------------------------|
G-9~~~~~~~~~~~~~~~-7~~~~~~~~~~~~~~~-5~~~~~~~~~~~~~~~~~-5~~~~~~~~~~~~~~~~~-|
D-9~~~~~~~~~~~~~~~-7~~~~~~~~~~~~~~~-5~~~~~~~~~~~~~~~~~-5~~~~~~~~~~~~~~~~~-|
A-7~~~~~~~~~~~~~~~-5~~~~~~~~~~~~~~~-3~~~~~~~~~~~~~~~~~-3~~~~~~~~~~~~~~~~~-|
E-------------------------------------------------------------------------|




Song Order:


Intro x4
Verse x2
Intro x2
Chorus x3
Intro x2
Verse x2
Intro x2
Chorus x3
Intro x1
Interlude x4
Chorus x4


Among 47:

Ludvig Bertilsson: Lead Guitar
Adam Liljekvist: Vocals, Backup Guitar
Dennis Svensson: Bass
Jacob Persson: Drums
Pontus Nathell: Manager/Flaming Macaracas



Tabbed by: LB swe
eMail: ludvigbertilsson@yahoo.se
Tap to rate this tab
 
# A B C D E F G H I J K L M N O P Q R S T U V W X Y Z