Song name
# A B C D E F G H I J K L M N O P Q R S T U V W X Y Z

Misc Unsigned Bands - Boss A Sekretarka - Triphop Song tab

This is a guitar tab for a Triphop song as played by BOSS a sekretarka

Standard tuning.

Intro:

e|---X-X---X-X---X-X---X-X---X-X---X-X---X-X----X---|
B|---X-X---X-X---X-X---X-X---X-X---X-X---X-X----X---|
G|---X-X---X-X---X-X---X-X---X-X---X-X---X-X----X---|
D|---X-X---X-X---X-X---X-X---X-X---X-X---X-X----X---|
A|---X-X---X-X---X-X---X-X---X-X---X-X---X-X----X---|
E|---X-X---X-X---X-X---X-X---X-X---X-X---X-X----X---|

repeat 2x

Verse:

e|--------------------------------------------------------|
B|--------------------------------------------------------|
G|--------------------------------------------------------|
D|---7-7-7--7-7---2-2-2--2-2---9-9-9--9-9---4-4-4----x----|
A|---7-7-7--7-7---2-2-2--2-2---9-9-9--9-9---4-4-4----x----|
E|---5-5-5--5-5---0-0-0--0-0---7-7-7--7-7---2-2-2----x----|
     xxxxxxxxxxxxxxxxxxxxxxxxxxxxxxxxxxxxxxxxxxxxxxxxx

repeat 2x

Chorus:

e|---------------------------------------------------------|
B|---------------------------------------------------------|
G|---------------------------------------------------------|
D|---7-XXX--------2-XX---------9-XXX--------4-XX-----------|
A|---7-XXX--------2-XX---------9-XXX--------4-XX-----------|
E|---5-XXX--------0-XX---------7-XXX--------2-XX-----------|

repeat 2x

Outro:

e|---------------------------------------------------------------|
B|---------------------------------------------------------------|
G|---------------------------------------------------------------|
D|---6-7-6-7--7-7------------------8-9-8-9--9-9------------------|
A|------------------6-7-6-7--7-7------------------8-9-8-9--9-9---|
E|---------------------------------------------------------------|

This is the "clean" version of the song, Peter playes this live with
more dirty and noisy tones! Just listen and you will know what I'm 
talking about.

Enjoy!
Tap to rate this tab
 
# A B C D E F G H I J K L M N O P Q R S T U V W X Y Z