Song name
# A B C D E F G H I J K L M N O P Q R S T U V W X Y Z

Misc Unsigned Bands - Skitarg - Hon tab

                                       Hon


                                                                              Skitarg
Guitar 1 Rythm

Tuning:
d
A
F
C
G
D


Riff 1
  Q    E  Q    E  E  E    E    E  E  Q    E  E  E
|------------------------|-------------------------|
|------------------------|-------------------------|
|------------------------|-------------------------|
|----------5----------4--|(4)--------2----------7--|
|------------------------|-------------------------|
|--0----7-------0--5-----|-----0--3-------0--3-----| x2

Riff 1 b


 Guitar 1
  Q    E  Q    E  E  E    E    E  E  Q    E  E  E
|------------------------|-------------------------|
|------------------------|-------------------------|
|------------------------|-------------------------|
|----------5----------4--|(4)--------2----------7--|
|------------------------|-------------------------|
|--0----7-------0--5-----|-----0--3-------0--3-----|
|                                                  |
| Guitar 2                                         |
|  Q    E  Q    E  E  E    E    E  E  Q   E  E  E  |
|------------------------|-------------------------|
|------------------------|-------------------------|
|------------------------|----------------------2--|
|----------9----------7--|(7)--------5-------------|
|------------------------|-------------------------|
|--0----7-------0--5-----|-----0--3-------0--3-----|x2



Riff 2

   S S S E.  S S S E.  S S S S    E  S S S E.  S S S E.  S S
|------------------------------|-----------------------------|
|------------------------------|-----------------------------|
|------------------------------|-----------------------------|
|--9-9-9-----------------------|---------------7-7-7-----9-9-|
|--7-7-7-----7-7-7-----9-9-9---|-----7-7-7-----5-5-5-----7-7-|
|--8-8-8-----8-8-8-----8-8-8---|-----5-5-5-----7-7-7-----8-8-|


   S E.  S S S E.  S S S E.     S S S E.  S S S E.  S S S S
|----------------------------|------------------------------|
|----------------------------|------------------------------|
|----------------------------|------------------------------|
|--9-------------------------|------------7-7-7-----9-9-9---|
|--7-----7-7-7-----9-9-9-----|--7-7-7-----5-5-5-----7-7-7---|
|--8-----8-8-8-----8-8-8-----|--5-5-5-----7-7-7-----8-8-8---|


   E  S S S E.  S S S E.  S S    S E.  S S S E.  S S S E.
|-----------------------------|----------------------------|
|-----------------------------|----------------------------|
|-----------------------------|----------------------------|
|-----------------------------|--------7-7-7-----9-9-9-----|
|-----7-7-7-----9-9-9-----7-7-|--7-----5-5-5-----7-7-7-----|
|-----8-8-8-----8-8-8-----5-5-|--5-----7-7-7-----8-8-8-----|


   S S S E.  S S S E.  S S S S    E  S S S E.
|------------------------------|---------------|
|------------------------------|---------------|
|------------------------------|---------------|   < Last beat is 2/4
|------------------------------|-----7-7-7-----|
|--7-7-7-----9-9-9-----7-7-7---|-----5-5-5-----|
|--8-8-8-----8-8-8-----5-5-5---|-----7-7-7-----|


Solo

           |--3--|
    S   S  S  S  S   Q     Q     E    E     E    Q     E   E    Q.
|---------------15h-17----14-------------|------------------------------|
|------------17-----------------15h--17--|-(17)-----------15---15-------|
|---------16-----------------------------|------12----14--14b--14b------|
|--14h-17--------------------------------|------------------------------|
|----------------------------------------|------------------------------|
|----------------------------------------|------------------------------|


    S   S  Q     S   S  Q     S   S  E     E   S   S   S  S  E   Q      Q
|-----------------------------------12--|-(12)---------12-14-15--20b----19---|
|---------12-----------15---------------|------------------------------------|
|--12h-14-------12h-14-------12h-14-----|------12h-14------------------------|
|---------------------------------------|------------------------------------|
|---------------------------------------|------------------------------------|
|---------------------------------------|------------------------------------|

  Guitar1
   S   S   S  S  S S  S   S   S  S  S S  S   S   S  S
|--19h-22p-19----19---19h-22p-19----19---19h-22p-19----|
|-------------20-----------------20-----------------20-|
|------------------------------------------------------|
|------------------------------------------------------|
|------------------------------------------------------|
|------------------------------------------------------|
| Guitar 2                                             |
|   S   S   S  S  S S  S   S   S  S  S S  S   S   S  S |
|--15h-19p-15----15---15h-19p-15----15---15h-19p-15----|
|-------------17-----------------17-----------------17-|
|------------------------------------------------------|
|------------------------------------------------------|
|------------------------------------------------------|
|------------------------------------------------------|



 Guitar 1
   S   S   S  S  S S  S   S   S  S  S S  S   S   S  S
|--14h-17p-14----14---14h-17p-14----14---14h-17p-14----|
|-------------15-----------------15-----------------15-|
|------------------------------------------------------|
|------------------------------------------------------|
|------------------------------------------------------|
|------------------------------------------------------|
|Guitar 2                                              |
|  S   S   S  S  S S  S   S   S  S  S S  S   S   S  S  |
|--17h-20p-17----17---17h-20p-17----17---17h-20p-17----|
|-------------19-----------------19-----------------19-|
|------------------------------------------------------|
|------------------------------------------------------|
|------------------------------------------------------|
|------------------------------------------------------|


 Guitar 1
   S   S  Q     Q      Q     E      E   Q     Q     E   E   E
|--------------------------------|-------------------------------|
|--15p-12-(12)-------------------|------------------12--15--15b--|
|---------------14h----16----11--|(11)-12----14------------------|
|--------------------------------|-------------------------------|
|--------------------------------|-------------------------------|
|--------------------------------|-------------------------------|
|Guitar 2                                                        |
|  S   S  Q     Q      Q     E      E   Q     Q     E   E   E    |
|--------------------------------|-------------------------------|
|--19p-15-(15)-------------------|------------------15--19--19b--|
|---------------17h----19----14--|(14)-16----17------------------|
|--------------------------------|-------------------------------|
|--------------------------------|-------------------------------|
|--------------------------------|-------------------------------|



   Guitar 1                                              |--3--|
    Q     E   Q.      E   E      Q     E   Q     E   E   S  S  S
|---------15--14-------------|-----------------------------------|
|--(15b)-------------15--12--|---L----15-------------------------|
|----------------------------|------------12----14--16--14-16-14-|
|----------------------------|-----------------------------------|
|----------------------------|-----------------------------------|
|----------------------------|-----------------------------------|
|                                                                |
|  Guitar 2                                             |--3--|  |
|   Q    H.                          Q  E  Q    E   E   S  S  S  |
|--------------------------------|-------------------------------|
|--(19b)-------------------------|------------------15--13-15-13-|
|--------------------------------|-------------------------------|
|--------------------------------|-------------------------------|
|--------------------------------|-------------------------------|
|--------------------------------|-------------------------------|


   Guitar 1
            |--3--|          |--3--|
    E   E   S  S  S  E   E   S  S  S  E   E
|--------------------------------------------|
|--------------------------------------------|
|------16--14-16-14-----16--14-16-14-----14--|
|--16---------------16---------------16------|
|--------------------------------------------|
|--------------------------------------------|
|                                            |
|  Guitar 2                                  |
|           |--3--|          |--3--|         |
| | E   E   S  S  S  E   E   S  S  S  E   E  |
|--------------------------------------------|
|------15--13-15-13-----15--13-15-13-----13--|
|--14---------------14---------------14------|
|--------------------------------------------|
|--------------------------------------------|
|--------------------------------------------|







    T        T        T        T        T        T        T        T
    |--3--|  |--3--|  |--3--|  |--3--|  |--3--|  |--3--|  |--3--|  |--3--|
    S  S  S  S  S  S  S  S  S  S  S  S  S  S  S  S  S  S  S  S  S  S  S  S
|--------------------------------------------------------------------------|
|--------------------------------------------------------------------------|
|--19-16-14-19-16-14-19-16-14-19-16-14-19-16-14-19-16-14-19-16-14-19-16-14-|
|--------------------------------------------------------------------------|
|--------------------------------------------------------------------------|
|--------------------------------------------------------------------------|


    H          E   E   E   E       H       E    E   E   E      W
|--12----------L------12--14---|-(14)----(14)-------12--17b--|(17)---------------|
|--15b---------L--12------17b--|-(17b)---(17b)--12-----------|-------------------|
|------------------------------|-----------------------------|-------------------|
|------------------------------|-----------------------------|-------------------|
|------------------------------|-----------------------------|-------------------|
|------------------------------|-----------------------------|-------------------|


    H.             Q        W
|--22b------------22----|--22pb----------------|
|-----------------------|----------------------|
|-----------------------|----------------------|
|-----------------------|----------------------|
|-----------------------|----------------------|
|-----------------------|----------------------|





Riff 1  x2
Riff 1b x2
Riff 2  x1
Riff 1  x2
Riff 1b x2
Riff 2  x1
Riff 1  x2
Riff 1b x2
Paus (8 Beats)
Solo
Riff 1  x2
Riff 1b x2
Riff 1  x2
Riff 1b x2
Riff 1  x2
Riff 1b x2
Riff 1  x2
Riff 1b x2

Duration Legend
---------------
W - whole
H - half
Q - quarter
E - 8th
S - 16th
T - 32nd
X - 64th
. - note dotted
|-3-| - Tipelets
Tap to rate this tab
 
# A B C D E F G H I J K L M N O P Q R S T U V W X Y Z