Song name
# A B C D E F G H I J K L M N O P Q R S T U V W X Y Z

Misc Unsigned Bands - Martin Bjorklund - Just Go Acoustic tab

Tuning

f
A#
F#
C#
G#
C#


Intro+verse

f   0-----------0-----------0-----------0
A#  0-----------0-----------0-----------0
F#  8-----------3-----------4-----------1
C#  9-----------4-----------6-----------2 
G#  9-----------4-----------6-----------2
C#  9-----------4-----------6-----------2  x2

bridge

f   0-----------0-----------0-----------0
A#  0-----------0-----------0-----------0
F#  3-----------1-----------3-----------1
C#  4-----------2-----------4-----------2
G#  4-----------2-----------4-----------2
C#  4-----------2-----------4-----------2


Ref + vers + ref = same as before.

Stick ( I dont know what to do )

f   0-----------0-----------0-----------0
A#  0-----------0-----------0-----------0
F#  3-----------1-----------8-----------3
C#  4-----------2-----------9-----------4
G#  4-----------2-----------9-----------4
C#  4-----------2-----------9-----------4

( but i will wait for you )

f   0-----------0-----------0-----------4
A#  0-----------0-----------0-----------5
F#  4-----------1-----------3-----------6
C#  6-----------2-----------4-----------4
G#  6-----------2-----------4-----------4
C#  6-----------2-----------4-----------4

Ref+outro same as before. 

www.twitter.com/martinmusic32

http://www.youtube.com/user/MartinMusic32
Tap to rate this tab
 
# A B C D E F G H I J K L M N O P Q R S T U V W X Y Z