Song name
# A B C D E F G H I J K L M N O P Q R S T U V W X Y Z

Misc Unsigned Bands - Brutal Metal Arse - Sniggers tab

Tuning CGCFAD
Guitar 1
-----------------------------------------------------------------|
-----------------------------------------------------------------|
-----------------------------------------------------------------|
-0-----------0-----------0-------0-----------0-----------0-------|
-0-----------0-----------0-------0-----------0-----------0-------|
-0---0-0-0-0-0---0-0-0-0-0---0-0-0---0-0-0-0-0---0-0-0-0-0---0-0-|

                                                              2x
--------------------------------------------------------------::
--------------------------------------------------------------::
--------------------------------------------------------------::
1-----------1---------1-------4-----------4-----------4-------::
1-----------1---------1-------4-----------4-----------4-------::
1---1-1-1-1-1---1-1-1-1---1-1-4---4-4-4-4-4---4-4-4-4-4---4-0-::

                             3x
-----------------------------:-----------------------------------:
-----------------------------:-----------------------------------:
-----------------------------:-----------------------------------:
-----------------------------:-----------------------------------:
------1-2-1-----1-2-1--------:-----------------------------------:
-3-2-3------3-2-3-----3-2-1-0:-0-0-0-0-0-0-0-0-0-1-1-1-1-1-1-1-1-:

                             3x                               3x
-----------------------------:--------------------------------::
-----------------------------:--------------------------------::
-----------------------------:--------------------------------::
-----------------------------:--------------------------------::
------1-2-1-----1-2-1--------:--------------------------------::
-3-2-3------3-2-3-----3-2-1-0:0-0-0-0-0-0-4-4-4-4-3-3-3-3-6-6-::

                                                                           3x
-----------------------------:---------------------------------------------::
-----------------------------:---------------------------------------------::
-----------------------------:---------------------------------------------::
-----------------------------:7--------------------------------------------::
----0---0---0---0------------:5-----------7-----------6-----------3--2--1--::
6-6-0---0---0---0--------12/0:----0-0-0-0-7---0-0-0-0-6---0-0-0-0-3--2--1--::

:------------------------------------:
:------------------------------------:
:------------------------------------:
:------------------------------------:
:2--1--2--3--2--1--3--2--3--4--3--2--:
:2--1--2--3--2--1--3--2--3--4--3--2--:

                                             3x
---------------------------------------------::----------------------:
---------------------------------------------::-----------------10\--:
---------------------------------------------::-----------------10\--:
7--------------------------------------------::-----------------10\--:
5-----------7-----------6-----------3--2--1--::0-0-0-0-0-0-8b--------:
----0-0-0-0-7---0-0-0-0-6---0-0-0-0-3--2--1--::0-0-0-0-0-0-----------:

-------------------------------------------------------------|
-------------------------------------------------------------|
-------------------------------------------------------------|
-0-------------------------------0-----------0---0---1---1---|
-0-------------------------------0-----------0---0---1---1---|
-0---0-0-0-0-0-0-0-0-0-0-0-0-0-0-0-----------0---0---1---1---|

-------------------------------------------------|
-------------------------------------------------|
-------------------------------------------------|
--------------------------------5----4---7---4---|
--------------------------------3----2---5---2---|
0---0-0-0-0-0-0-0-0-0-0-0-0-0-0------------------|

(2nd Guitar)
-------------------------------------------------|
-------------------------------------------------|
-------------------------------------------------|
-------------------------------------------------|
-------------------------------15---14--17--14---|
-------------------------------------------------|

1st Guitar
--------------------------------3b-3b-3b-3b-4b-4b-4b-|
-----------------------------------------------------|
--------------------------------7b-7b-7b-7b-8b-8b-8b-|
--------------------------------7b-7b-7b-7b-8b-8b-8b-|
-----------------------------------------------------|
0---0-0-0-0-0-0-0-0-0-0-0-0-0-0----------------------|

--------------------------------:
--------------------------------:
--------------------------------:
--------------------------------:
--------------------------------:
0---0-0-0-0-0-0-0-0-0-0-0-0-0-0-:

1st Guitar
---------------------------------------------------------------|
---------------------------------------------------------------|
---------------------------------------------------------------|
-0--------------1--------------0-----------0-----------0-------|
-0--------------1--------------0---0-0-0-0-0---0-0-0-0-0-------|
-0--------------1--------------0---0-0-0-0-0---0-0-0-0-0---0-0-|

2nd Guitar
---------------------------------------------------------------|
---------------------------------------------------------------|
---------------------------------------------------------------|
-12---14---15---12---14---15---12----------14----------15------|
---------------------------------------------------------------|
---------------------------------------------------------------|

1st Guitar
-----------------------------------------))
-----------------------------------------))
-----------------------------------------))
1--------------------0-------------------))
1--------------------0-------------------))
1--------------------0-------------------))

2nd Guitar
------------------------------------------))
------------------------------------------))
------------------------------------------))
12------14-----15-----12------------------))
------------------------------------------))
------------------------------------------))
Tap to rate this tab
 
# A B C D E F G H I J K L M N O P Q R S T U V W X Y Z