Song name
# A B C D E F G H I J K L M N O P Q R S T U V W X Y Z

Misc Unsigned Bands - Lifes Serenade - Untitled Atm P tab

Capo 4th

e|---------2---3-----------0-------------0-------------3-----|
b|-2---------------3---------2---3---------2---3---------2---|
g|-----0---------------0-------0-----0-------0-----0-------0-|
d|-------2---------------2-------------0-------------0-------|
a|-2-2-------2---2-3-3---------------------------------------|
E|-------------------------------3-3-----------3-3-----3-----| x3



e|---------2---3-----------0-------------0-----3~~-|
b|-2---------------3---------2---3---------2---3~~-|
g|-----0---------------0-------0-----0-------0-0~~-|
d|-------2---------------2-------------0-------0~~-|
a|-2-2-------2---2-3-3-------------------------2~~-|
E|-------------------------------3-3-----------3~~-|

e|-0-0-0-2-2-3-3-3-3-0-0-0-0-0-0-0-0-0-0-0-0-0-0-0-0-0-0-0-0-0-0-0-3-3-3-3-|
b|-0-0-0-0-0-0-0-0-0-2-2-2-2-2-2-2-2-2-2-2-2-2-2-2-2-2-2-2-2-2-2-2-2-2-2-2-|
g|-0-0-0-0-0-0-0-0-0-0-0-0-0-0-0-0-0-0-0-0-0-0-0-0-0-0-0-0-0-0-0-0-0-0-0-0-|
d|-2-2-2-2-2-2-2-2-2-2-2-2-2-2-2-2-2-2-0-0-0-0-0-0-0-0-0-0-0-0-0-0-0-0-0-0-|
a|-2-2-2-2-2-2-2-2-2-3-3-3-3-3-3-3-3-3-2-2-2-2-2-2-2-2-2-2-2-2-2-2-2-2-2-2-|
E|-0-0-0-0-0-0-0-0-0-x-x-x-x-x-x-x-x-x-3-3-3-3-3-3-3-3-3-3-3-3-3-3-3-3-2-2-|

Tap to rate this tab
 
# A B C D E F G H I J K L M N O P Q R S T U V W X Y Z