Song name
# A B C D E F G H I J K L M N O P Q R S T U V W X Y Z

Misc Unsigned Bands - Kyle Hicks - Please Smile tab

-------------------------------------------------------------------------------
			    Please Smile - Kyle Hicks
-------------------------------------------------------------------------------
Tabbed by: Kyle Hicks
Email: kylehicks01@hotmail.com

Tuning: Standard

e|------------------------------------------------------------------------------|
B|---------5-----5-----5-----5--------------2-----2-3-2---2-----2---------------|
G|-----6-----6-----6-----6-----6--------2-----2---------2---2-----2-------------|
D|---6---6-----6-----6-----6-----6----2---2-----2-------------2-----2-----------|
A|-4--------------------------------0-------------------------------------------|
E|------------------------------------------------------------------------------|

e|------------------------------------------------------------------------------|
B|--------------------------------------------4---4-5-2--4----------------------|
G|---------0-----2-----0-----2-----0--------4-4---4-4-2--4----------------------|
D|-----4-----3-----3-----3-----3-----3----4-------------------------------------|
A|---4---4-----4-----4-----4-----4------2---------------------------------------|
E|-2----------------------------------------------------------------------------|

e|------------------------------------------------------------------------------|
B|---------5-----5-7-5---5-----5---------------2-----2-3-2----2-----2-----------|
G|-----6-----6---------6---6-----6--------2------2---------2----2-----2---------|
D|---6---6-----6-------------6-----6----2---2------2--------------2-----2-------|
A|-4----------------------------------0-----------------------------------------|
E|------------------------------------------------------------------------------|

e|------------------------------------------------------------------------------|
B|---------0-----2-----0-----2-----0------------4--4-5-4--4---------------------|
G|-----------3-----3-----3-----3-----3--------4-4--4-4-4--4---------------------|
D|-----4-------4-----4-----4-----4----------4-----------------------------------|
A|---4---4--------------------------------2-------------------------------------|
E|-2----------------------------------------------------------------------------|

e|-4-x-x-4-x-x-4-x--0-0-0-x-x-2-------------------------------------------------|
B|-5-x-x-5-x-x-5-x--2-2-2-x-x-2-0-----0-----0-----0-----0-----------------------|
G|-6-x-x-6-x-x-6-x--2-2-2-x-x-3---3-----3-----3-----3-----3---------------------|
D|-6-x-x-6-x-x-6-x--2-2-2-x-x-4-----4-----4-----4-----4-------------------------|
A|-4-x-x-4-x-x-4-x--0-0-0-x-x-4-------------------------------------------------|
E|----------------------------2-------------------------------------------------|

e|-2------------------------------2---------------------------------------------|
B|-2-0-----0-----2------0------0--4-4-----4-----5-----4-------------------------|
G|-3---3-----3-----3------3-------4---4-----4-----4-----4-----------------------|
D|-4-----4-----4------4------4----4-----4-----4-----4-----4---------------------|
A|-4------------------------------2---------------------------------------------|
E|-2----------------------------------------------------------------------------|

e|------------------------------------------------------------------------------|
B|---------5------------------2------------------------------------4------------|
G|-----6-----6---6-------2------2---2------------3-------------4-----4---4------|
D|---6---6-----6-------2---2------2----------4-----4--4------4---4-----4--------|
A|-4-----------------0---------------------4---4-----4-----2--------------------|
E|---------------------------------------2--------------------------------------|

e|---------------------------------------------------------------0-0-x-x-2-|
B|-------5---------4--------2--------------4--------5--------4---2-2-x-x-4-|
G|-----6-6-------4-4------2-2-------3------4------6-6------4-4---2-2-x-x-4-|
D|---6---------4--------2-----------4----4------6--------4-------2-2-x-x-4-|
A|-4---------2--------0-----------4----2------4--------2---------0-0-x-x-2-|
E|------------------------------2------------------------------------x-x---|


e|---------4------------------0-------------------2------------2----------------|
B|----------------5--------------------------5------5---5-------------4---------|
G|-----6-----6------------2------2---2-----4---4------4---------------4---------|
D|---6---6-----6--------2---2------2-----2--------------------------4-----------|
A|-4------------------0---------------------------------------4---2-------------|
E|----------------------------------------------------------2-------------------|

e|--------4-----------------2----------------0---------------2--------2---------|
B|----------5-----------------4----------------2---------------3----------------|
G|-----6------6---6------4------4---4------2-----2---2--------------------------|
D|---6----------6------4----------4------2---------2----------------4----4------|
A|-4-----------------2-----------------0--------------------4-----2-------------|
E|--------------------------------------------------------2---------------------|
Tap to rate this tab
 
# A B C D E F G H I J K L M N O P Q R S T U V W X Y Z