Misc Unsigned Bands - Ffvii Crisis Core - Why tab

This song is from FFVII CRISIS CORE. Their are two versions for this song. This one is 
from angeal's death :'(

If ya wanna how the rhythm for it goes you can use this as a reference


http://www.youtube.com/watch?v=c-04hs8UnUc


e|------------------------|
B|------------------------|
G|--5-7-5--7--5--7s9------|
D|--------------------7---|
A|------------------------|
E|------------------------|


e|-------------------------|
B|-------------------------|
G|--5-7-5--7--5--5s7--5----|
D|-----------------------5-|
A|-------------------------|
E|-------------------------|


e|--------------------------|
B|--------------------------|
G|--7-5-7---5--7--7s9-------|
D|----------------------7---|
A|--------------------------|
E|--------------------------|


e|--------------------------|
B|------10--8-8-------------|
G|--------------9-9-----7---|
D|--5-5---------------------|
A|--------------------------|
E|--------------------------|

e|---------------------------------------------|
B|------5---------5----------5-8--6-6--5-5-----|
G|--5-7------5-7-------5-7------------------7--|
D|--------7---------7--------------------------|
A|---------------------------------------------|
E|---------------------------------------------|

e|------------------------8--------------------|
B|------5----------5-8-6-----5--5--------------|
G|--5-7-------5-7--------------------7---------|
D|--------7------------------------------------|
A|---------------------------------------------|
E|---------------------------------------------|

e|----8-8--8s12-------------------------------------------|
B|--8------------8-8---8s10---8---8----8h10--8------------|
G|------------------------------9---9-----------9--7------|
D|----------------------------------------------------10--|
A|--------------------------------------------------------|
E|--------------------------------------------------------|

e|--8-8--8s12-----------------------------------|
B|-------------8-8---8s10---8---8----8h10-------|
G|----------------------------9---9-------------|
D|----------------------------------------------|
A|----------------------------------------------|
E|----------------------------------------------|

e|------------------------------------------------5-------------|
B|------------------------------------------5--8-----5----------|
G|----7-5-7-5-7--5-7--5--7s9---7-5-7-5-7--5------------7-5-7-5--|
D|--7-----------------------------------------------------------|
A|--------------------------------------------------------------|
E|--------------------------------------------------------------|

e|----------------------------------------|
B|----------------------------------------|
G|--9--7~~------5-7-5--7--5---7s9---------|
D|------------------------------------7---|
A|----------------------------------------|
E|----------------------------------------|


e|-------------------------|
B|-------------------------|
G|--5-7-5--7--5--5s7--5----|
D|-----------------------5-|
A|-------------------------|
E|-------------------------|


e|--------------------------|
B|--------------------------|
G|--7-5-7---5--7--7s9-------|
D|----------------------7---|
A|--------------------------|
E|--------------------------|


e|--------------------------|
B|------10--8-8-------------|
G|--------------9-9-----7---|
D|--5-5---------------------|
A|--------------------------|
E|--------------------------|

e|---------------------------------------------|
B|------5---------5----------5-8--6-6--5-5-----|
G|--5-7------5-7-------5-7------------------7--|
D|--------7---------7--------------------------|
A|---------------------------------------------|
E|---------------------------------------------|

e|------------------------8--------------------|
B|------5----------5-8-6-----5--5--------------|
G|--5-7-------5-7--------------------7---------|
D|--------7------------------------------------|
A|---------------------------------------------|
E|---------------------------------------------|

e|--8--8------8s12----|

Thats the end of it :') enjoy
Tap to rate this tab
 
# A B C D E F G H I J K L M N O P Q R S T U V W X Y Z