Misc Unsigned Bands - Noob Slayer - Freddiew tab

Noob Slayer - freddiew
http://www.youtube.com/watch?v=mTS16klgqMU

Tabbed by: Wllmdu
Email: mushyme8@hotmail.com (any suggestions and comments)
YouTube Username: Wllmdu (please subscribe if you like)
www.youtube.com/wllmdu


Standard Tuning


Bass Guitar Riff (arr. for guitar)


e|------------------------------------------------------------------------|
B|------------------------------------------------------------------------|
G|------------------------------------------------------------------------|
D|--7---------------10-------------------12----------------3-------5------|
A|------------------------------------------------------------------------|
E|5----5--5--5--5--8----8---8---8--8--10----10--10--10\--1---1-1--3---3--3|


Power Chords / Chords throughout song


e|-------------------------------------------------------------|
B|-------------------------------------------------------------|
G|-------------------------------------------------------------|
D|-7---------10---------12--------3---5------------------------|
A|-7---------10---------12--------3---5------------------------|
E|-5---------8----------10--------1---3------------------------|


Guitar Solo


e|------------------------------8-------------------------------------|
B|8-10-10-10--8-10-10-10---8-10----8-10-10-10--8-10-10-10--8-10-------|
G|---------------------------------------------------------------9----|
D|--------------------------------------------------------------------| x4
A|--------------------------------------------------------------------|
E|--------------------------------------------------------------------|


e|--------------------------------12-------------------------------------|
B|12-13-13-13--12-13-13-13--12-13-----12-13-13-13--12-13-13-13--13-12----|
G|--------------------------------------------------------------------14-|
D|-----------------------------------------------------------------------|
A|-----------------------------------------------------------------------|
E|-----------------------------------------------------------------------|

e|--------------------------------12--------12---------12---15-12--15-12-|
B|12-13-13-13--12-13-13-13--12-13-----12-13------12-13-------------------|
G|-----------------------------------------------------------------------|
D|-----------------------------------------------------------------------|
A|-----------------------------------------------------------------------|
E|-----------------------------------------------------------------------|

e|----15/17------------------------------------------17\0----------------|
B|-----------------------------------------------------------------------|
G|-----------------------------------------------------------------------|
D|-----------------------------------------------------------------------|
A|-----------------------------------------------------------------------|
E|-----------------------------------------------------------------------|

\ = slide down
/ = slide up

Hope you enjoyed this tab! Please rate and comment, and if you have some spare time 
please subscribe to my YouTube Channel for more! Thanks!
Tap to rate this tab
 
# A B C D E F G H I J K L M N O P Q R S T U V W X Y Z