Song name
# A B C D E F G H I J K L M N O P Q R S T U V W X Y Z

Misc Unsigned Bands - Guilty Verdikt - Midnight tab

-------------------------------------------------------------------------------
		 	     MIDNIGHT - Guilty Verdikt
-------------------------------------------------------------------------------

Tabbed By : Lazar Blackfire
e-mail: guilty_verdikt7@yahoo.com

Tuning: Db Ab Db Gb



Intro/First Verse
Gb|--------|
Db|--------|
Ab|--------|
Db|-0~~~~~-|

Gb|----------------------|
Db|----------------------|
Ab|----------------3~-6~-|
Db|-0~~~-1~~~-0~~~-------|x4

Gb|----------------------|       |---------------------|
Db|----------------------|       |---------------------|
Ab|----------------------|       |---------------------|
Db|-5~~~-6~~~-5~~~-3~-6~-|x3     |-5~~~-6~~~-5~~~-0~~~-|


Pre-chorus
Gb|---------------------------------------------|
Db|---------------------------------------------|
Ab|----------------3~-6~------------------3~-6~-|
Db|-0~~~-1~~~-0~~~-------0-0---1-1---0~~~-------|


Chorus
Gb|---------------------------------------------------------|
Db|-----------------------------3-----3-----3---------------|
Ab|-5-----5-----5-------------------------------------------|
Db|---0-0---0-0---0-2-2~-2--2~2---3-3---3-3---3-5-5~-5--5~5-|

Gb|---------------------------------------------------------|
Db|-----------------------------2-----2-----2---------------|
Ab|-5-----5-----5-------------------------------3-3~-3--3-3-|
Db|---0-0---0-0---0-3-3~-3--3~3---2-2---2-2---2-------------|


Interlude
Gb|----------------------|
Db|----------------------|
Ab|----------------3~-6~-|
Db|-0~~~-1~~~-0~~~-------|x2


2nd Verse
Gb|---------------------------------------------------------|
Db|---------------------------------------------------------|
Ab|-5-5--5-5-5--5-6-6--6-3-3--3-5-5--5-5-5--5-3-3--3-6-6--6-|
Db|---------------------------------------------------------|x2

Gb|---------------------------------|
Db|---------------------------------|
Ab|---------------------------------|
Db|-0-2-3-2-0-2-3-2-1-3-4-3-3-6-2-5-|x4


Pre-chorus
Gb|---------------------------------------------|
Db|---------------------------------------------|
Ab|----------------3~-6~------------------3~-6~-|
Db|-0~~~-1~~~-0~~~-------0-0---1-1---0~~~-------|


Chorus
Gb|---------------------------------------------------------|
Db|-----------------------------3-----3-----3---------------|
Ab|-5-----5-----5-------------------------------------------|
Db|---0-0---0-0---0-2-2~-2--2~2---3-3---3-3---3-5-5~-5--5~5-|

Gb|---------------------------------------------------------|
Db|-----------------------------2-----2-----2---------------|
Ab|-5-----5-----5-------------------------------3-3~-3--3-3-|
Db|---0-0---0-0---0-3-3~-3--3~3---2-2---2-2---2-------------|


Bridge
Gb|-----------------------------------------------------|
Db|-----------------------------------------------------|
Ab|-5-5---------------------5-5-------------------------|
Db|-------8-8---3-3---7-7---------8-8---3-3---7-7--7-7--|

Gb|------------------------------------------------|
Db|------------------------------------------------|
Ab|-5--5--5--5-------------------------------------|
Db|-------------8--8--8--8--3--3--3--3--7--7--7--7-|

Gb|-----------------------------------------------------------------|
Db|-------------------------------------------------2-2-2-2-2-2-2-2-|
Ab|-5-----5-----5---1-----1-----1-------------------0-0-0-0-0-0-0-0-|
Db|---0-0---0-0---0---3-3---3-3---3-3-0-0-3-0-0-3-0-----------------|


Interlude/Ending
Gb|----------------------|       |-------------------|
Db|----------------------|       |-------------------|
Ab|----------------3~-6~-|       |-------------------|
Db|-0~~~-1~~~-0~~~-------|x2     |-7~~~-8~-5~--0~~~~-|



| /  slide up
| \  slide down
| h  hammer-on
| p  pull-off
| ~  vibrato
| +  harmonic
| x  Mute note
===============================================================================
Tap to rate this tab
 
# A B C D E F G H I J K L M N O P Q R S T U V W X Y Z