Misc Unsigned Bands - Juniper Green - Boy Ordinary tab

Good Song by a great upcoming band, all I got so far is the beginning.

Standard Tuning (E-A-D-G-B-e)

Guitar 1
____________________________________________________________________________________
e -----------------------------------------------------------------|
B -----------4-2-2h4-2p0--4-2-2h4-2p0---4-2-2h4-2--4-4-4s5-4-2p0---|
G -----------0-0-0---0----0-0-0---0-----0-0-0---0--0-0-0---0-0-----|
D -3p0-------------------------------------------------------------|
A -----3p0---------------------------------------------------------|
E ----------3------------3-------------0----------0----------------|  x2

Guitar 2 (Comes in a little after Guitar 1)

_____________________________________________________________________________________
e -7-5---7-5---7-5-8-7----8-7----8-7-------------------------------|
B -----8-----8---------10-----10-----------------------------------|
G -----------------------------------------------------------------|
D -----------------------------------------------------------------|
A -----------------------------------------------------------------|
E -----------------------------------------------------------------|

That should be the right start. Enjoy :D
Tap to rate this tab
 
# A B C D E F G H I J K L M N O P Q R S T U V W X Y Z