Song name
# A B C D E F G H I J K L M N O P Q R S T U V W X Y Z

Misc Unsigned Bands - Defeatretreat - Id Theft tab

GUITAR:

INTRO

G#----------------------------------------------|
C#----------------------------------------------|
E ----------------------------------------------|
B ----------------------------------------------|
F#-5---8------7---10-------5---8------7----0000-|
B --777-101010-888--121212--777-101010-888-0000-|

G#----------------------------------------------|
C#----------------------------------------------|
E -------------------------1010101010101010-7-7-|
B -------------------------8-8-8-8-8-8-8-8--5-5-|
F#-5---8------7---10-------8-8-8-8-8-8-8-8--5-5-|
B --777-101010-888-121212--8-8-8-8-8-8-8-8--5-5-|

G#----------------------------------------------|
C#----------------------------------------------|
E ----------------------------------------------|
B -0------------0--------------0-------------0--|
F#-0------------0--------------0-------------0--|
B -0------------0--------------0-------------0--|

VERSE

G#-------------------------------------------------|
C#-------------------------------------------------|
E -------------------------------------------------|
B -1212x121212x----x------x----x------x----x-------|
F#-8-8-x8-8-8-x1010x101010x1212x121212x1313x131313-|
B -8-8-x8-8-8-x8-8-x8-8-8-x1010x101010X1010X101010-|

G#-------------------------------------------------------------|
C#-------------------------------------------------------------|
E -------------------------------------------------------------|
B -------------------------------------------------------------|
F#-------------------------------------------------------------|
B -0-0-3p0-3p0-0-0-0-0-0-0-0-0-0-0-0-3p0-3p0-0-0-0-0-0-0-0-0-0-|

G#-------------------------------------------------|
C#-------------------------------------------------|
E -------------------------------------------------|
B -1212x121212x----x------x----x------x----x-------|
F#-8-8-x8-8-8-x1010x101010x1212x121212x1313x131313-|
B -8-8-x8-8-8-x8-8-x8-8-8-x1010X101010X1010X101010-|

G#-------------------------------------------------------------|
C#-------------------------------------------------------------|
E -------------------------------------------------------------|
B -------------------------------------------------------------|
F#-----1717171717-----1515151515-----1717171717-----1818181818-|
B -0-0-1515151515-0-0-1212121212-0-0-1515151515-0-0-1515151515-|

G#-------------------------------------------------|
C#-------------------------------------------------|
E -------------------------------------------------|
B -1212x121212x----x------x----x------x----x-------|
F#-8-8-x8-8-8-x1010x101010x1212x121212x1313x131313-|
B -8-8-x8-8-8-x8-8-x8-8-8-x1010X101010X1010X101010-|

G#------------------------------------------------------------|
C#------------------------------------------------------------|
E ------------------------------------------------------------|
B -----------------------------------------------2------1-----|
F#-----------------------------------------------2------1-----|
B -0-0-3p0-3p0-0-0-0-0-0-0-0-0-0-0-0-3p0-3p0-0-0-2------1-----|

BREAKDOWN 1
G#------------------------------------------------------------|
C#------------------------------------------------------------|
E ------------------------------------------------------------|
B -00-00-0-0-0--0-00-0-0-0--00-00-0-0-0-00-00-----------------|
F#-00-00-0-0-0--0-00-0-0-0--00-00-0-0-0-00-00-----------------|
B -00-00-0-0-0--0-00-0-0-0--00-00-0-0-0-00-00-----------------|

CHORUS

G#---------------------------------------|
C#---------------------------------------|
E -7-7-777-10-10-101010------------------|
B -5-5-555-8--8--8-8-8--3-3-333-3-3-333--|
F#-5-5-555-8--8--8-8-8--3-3-333-3-3-333--|
B -5-5-555-8--8--8-8-8--3-3-333-3-3-333--|

G#-------------------------------------------------|
C#-------------------------------------------------|
E -7-7-777-10-10-101010-14-14-141414-14-14-141414--|
B -5-5-555-8--8--8-8-8--10-10-101010-10-10-101010--|
F#-5-5-555-8--8--8-8-8--10-10-101010-10-10-101010--|
B -5-5-555-8--8--8-8-8--10-10-101010-10-10-101010--|

VERSE 2

G#-------------------------------------------------|
C#-------------------------------------------------|
E -------------------------------------------------|
B -1212x121212x----x------x----x------x----x-------|
F#-8-8-x8-8-8-x1010x101010x1212x121212x1313x131313-|
B -8-8-x8-8-8-x8-8-x8-8-8-x1010X101010X1010X101010-|

G#-------------------------------------------------------------|
C#-------------------------------------------------------------|
E -------------------------------------------------------------|
B -------------------------------------------------------------|
F#-------------------------------------------------------------|
B -0-0-3p0-3p0-0-0-0-0-0-0-0-0-0-0-0-3p0-3p0-0-0-0-0-0-0-0-0-0-|

G#-------------------------------------------------|
C#-------------------------------------------------|
E -------------------------------------------------|
B -1212x121212x----x------x----x------x----x-------|
F#-8-8-x8-8-8-x1010x101010x1212x121212x1313x131313-|
B -8-8-x8-8-8-x8-8-x8-8-8-x1010X101010X1010X101010-|

G#-------------------------------------------------------------|
C#-------------------------------------------------------------|
E -------------------------------------------------------------|
B -------------------------------------------------------------|
F#-----1717171717-----1515151515-----1717171717-----1818181818-|
B -0-0-1515151515-0-0-1212121212-0-0-1515151515-0-0-1515151515-|

G#-------------------------------------------------|
C#-------------------------------------------------|
E -------------------------------------------------|
B -1212x121212x----x------x----x------x----x-------|
F#-8-8-x8-8-8-x1010x101010x1212x121212x1313x131313-|
B -8-8-x8-8-8-x8-8-x8-8-8-x1010x101010X1010X101010-|

G#-------------------------------------------------------------|
C#-------------------------------------------------------------|
E -------------------------------------------------------------|
B -------------------------------------------------------------|
F#-------------------------------------------------------------|
B -0-0-3p0-3p0-0-0-0-0-0-0-0-0-0-0-0-3p0-3p0-0-0-0-0-0-0-0-0-0-|

G#-------------------------------------------------|
C#-------------------------------------------------|
E -------------------------------------------------|
B -1212x121212x----x------x----x------x----x-------|
F#-8-8-x8-8-8-x1010x101010x1212x121212x1313x131313-|
B -8-8-x8-8-8-x8-8-x8-8-8-x1010X101010x1010X101010-|

G#-------------------------------------------------------------|
C#-------------------------------------------------------------|
E -------------------------------------------------------------|
B -------------------------------------------------------------|
F#-----1717171717-----1515151515-----1717171717-----1818181818-|
B -0-0-1515151515-0-0-1212121212-0-0-1515151515-0-0-1515151515-|

CHORUS

G#---------------------------------------|
C#---------------------------------------|
E -7-7-777-10-10-101010------------------|
B -5-5-555-8--8--8-8-8--3-3-333-3-3-333--|
F#-5-5-555-8--8--8-8-8--3-3-333-3-3-333--|
B -5-5-555-8--8--8-8-8--3-3-333-3-3-333--|

G#-------------------------------------------------|
C#-------------------------------------------------|
E -7-7-777-10-10-101010-14-14-141414-14-14-141414--|
B -5-5-555-8--8--8-8-8--10-10-101010-10-10-101010--|
F#-5-5-555-8--8--8-8-8--10-10-101010-10-10-101010--|
B -5-5-555-8--8--8-8-8--10-10-101010-10-10-101010--|

MIDDLE 8

G#-------------------------------------------------|
C#-------------------------------------------------|
E -------------------------------------------------|
B -------------------------------------------------|
F#-------------------------------------------------|
B -0-tremolo-pick-16th-notes-for-7-bars-and-1-beat-|

BREAKDOWN 2

G#---------------------------------------------------|
C#---------------------------------------------------|
E ---------------------------6-----------------------|
B -00-00-------0-0-0-0-----5----00-00-------0-0-0-0--|
F#-00-00-------0-0-0-0---7------00-00-------0-0-0-1--|
B -00-00-3b-3b-0-0-0-0-8--------00-00-1b-1b-0-0-0-3--|


BASS

INTRO

E ---------------------------------------------------------|
B ---------------------------------------------------------|
F#---------------------------------------------------------|
B -7777-10101010-8888-12121212-7777-10101010-8888-12121212-|

E ---------------------------------------------------------|
B ---------------------------------------------------------|
F#---------------------------------------------------------|
B -7777-10101010-8888-12121212-88888888-5-5----------------|

E ---------------------------------------------------------|
B ---------------------------------------------------------|
F#---------------------------------------------------------|
B -0------------0-----------0-------------0----------------|

VERSE

E ---------------------------------------------------------|
B ---------------------------------------------------------|
F#-88-888--------------------------------------------------|
B --------88-888-1010-101010-1010-101010-------------------|

E ---------------------------------------------------------------|
B ---------------------------------------------------------------|
F#---------------------------------------------------------------|
B -0-0-3p0-3p0-0-0-0-0-0-0-0-0-0-0-0-3p0-3p0-0-0-0-0-0-0-0-0-0-0-|

E ---------------------------------------------------------|
B ---------------------------------------------------------|
F#-88-888--------------------------------------------------|
B --------88-888-1010-101010-1010-101010-------------------|

E -------------------------------------------------------------|
B -------------------------------------------------------------|
F#-------------------------------------------------------------|
B -0-0-1515151515-0-0-1212121212-0-0-1515151515-0-0-1515151515-|


E ---------------------------------------------------------|
B ---------------------------------------------------------|
F#-88-888--------------------------------------------------|
B --------88-888-1010-101010-1010-101010-------------------|

E ---------------------------------------------------------------|
B ---------------------------------------------------------------|
F#---------------------------------------------------------------|
B -0-0-3p0-3p0-0-0-0-0-0-0-0-0-0-0-0-3p0-3p0-0-0-2---1-----------|

BREAKDOWN

E ------------------------------------------------------------|
B ------------------------------------------------------------|
F#------------------------------------------------------------|
B -00-00-0-0-0--0-00-0-0-0--00-00-0-0-0-00-00-----------------|

CHORUS

E ---------------------------------------------------------------------------|
B ---------------------------------------------------------------------------|
F#---------------------------------------------------------------------------|
B -5-5-555-8-8-888-3-3-333-3-3-333-5-5-555-8-8-888-10-10-101010-10-10-101010-|

VERSE 2

E ---------------------------------------------------------|
B ---------------------------------------------------------|
F#-88-888--------------------------------------------------|
B --------88-888-1010-101010-1010-101010-------------------|

E ---------------------------------------------------------------|
B ---------------------------------------------------------------|
F#---------------------------------------------------------------|
B -0-0-3p0-3p0-0-0-0-0-0-0-0-0-0-0-0-3p0-3p0-0-0-0-0-0-0-0-0-0-0-|

E ---------------------------------------------------------|
B ---------------------------------------------------------|
F#-88-888--------------------------------------------------|
B --------88-888-1010-101010-1010-101010-------------------|

E -------------------------------------------------------------|
B -------------------------------------------------------------|
F#-------------------------------------------------------------|
B -0-0-1515151515-0-0-1212121212-0-0-1515151515-0-0-1515151515-|

E ---------------------------------------------------------|
B ---------------------------------------------------------|
F#-88-888--------------------------------------------------|
B --------88-888-1010-101010-1010-101010-------------------|

E ---------------------------------------------------------------|
B ---------------------------------------------------------------|
F#---------------------------------------------------------------|
B -0-0-3p0-3p0-0-0-0-0-0-0-0-0-0-0-0-3p0-3p0-0-0-0-0-0-0-0-0-0-0-|

E ---------------------------------------------------------|
B ---------------------------------------------------------|
F#-88-888--------------------------------------------------|
B --------88-888-1010-101010-1010-101010-------------------|

E -------------------------------------------------------------|
B -------------------------------------------------------------|
F#-------------------------------------------------------------|
B -0-0-1515151515-0-0-1212121212-0-0-1515151515-0-0-1515151515-|

CHORUS

E ---------------------------------------------------------------------------|
B ---------------------------------------------------------------------------|
F#---------------------------------------------------------------------------|
B -5-5-555-8-8-888-3-3-333-3-3-333-5-5-555-8-8-888-10-10-101010-10-10-101010-|

MIDDLE 8

E -------------------------------------------------|
B -------------------------------------------------|
F#-------------------------------------------------|
B -0-tremolo-pick-16th-notes-for-7-bars-and-1-beat-|

BREAKDOWN 2

E ---------------------------------------------------|
B ---------------------------------------------------|
F#---------------------------------------------------|
B -00-00-3b-3b-0-0-0-0----------00-00-1b-1b-0-0-0-3--|
Tap to rate this tab
 
# A B C D E F G H I J K L M N O P Q R S T U V W X Y Z