Misc Unsigned Bands - Defeatretreat - Council House And Violence tab

GUITAR
Fig 1:

G#--------------------------------------------------------------|
C#--------------------------------------------------------------|
E --------------------------------------------------------------|
B -0000--0000--0000--0000--000000000000000000000000000000000----|
F#-0000--0000--0000--0000--000000000000000000000000000000000----|
B -0000--0000--0000--0000--000000000000000000000000000000000----|

FIG 2:

G#---------------------------<5>-------------|
C#---------------------------<5>-------------|
E ---------------------------<5>-------------|
B -0-------------0-0-------------------------|
F#-0-let-ring----0-0-let-ring----------------|
B -0-------------0-0-------------------------|

FIG 3:

G#------------------------------------------------------------|
C#------------------------------------------------------------|
E ------------------------------------------------------------|
B -0000------------0000-10101010-0000------------0000-8888----|
F#-0000-5p0--------0000-8-8-8-8--0000-5p0--------0000-7777----|
B -0000----5p0-3s5-0000-7-7-7-7--0000----5p0-3s5-0000-5555----|

FIG 4:

G#------------------------------------------------------------|
C#------------------------------------------------------------|
E ------------------------------------------------------------|
B -00003-000000000----------------------------------12-12-12--|
F#-00003-000000000---------777-------------10-10-10-----------|
B -00003-000000000-555-555-----888-888-888--------------------|

G#------------------------------------------------------------|
C#------------------------------------------------------------|
E ------------------------------------------------------------|
B -0000----000000000------------------------------------------|
F#-0000-*--000000000------------------------------------------|
B -0000-3b-000000000-5555555555555555778888888888888888-------|

FIG 5:

G#------------------------------------------------------------|
C#------------------------------------------------------------|
E -77777777-1010101010101010----------------------------------|
B -77777777-1010101010101010-77777777-55555555----------------|
F#-55555555-8-8-8-8-8-8-8-8--55555555-33333333----------------|
B ---------------------------33333333-22222222----------------|

G#-------------------------------------------------------------|
C#-------------------------------------------------------------|
E -77777777-1010101010101010-1212121212121212------------------|
B -77777777-1010101010101010-8-8-8-8-8-8-8-8--1212121212121212-|
F#-55555555-8-8-8-8-8-8-8-8--8-8-8-8-8-8-8-8--1010101010101010-|
B ---------------------------8-8-8-8-8-8-8-8--1010101010101010-|

FIG 6:

G#------------------------------------------------------------------|
C#------------------------------------------------------------------|
E ------------------------------------------------------------------|
B -0-0-0-0-0-0------------------0-0-0----------0-0-0----------------|
F#-0-0-0-0-0-0------------------0-0-0----------0-0-0----------------|
B -1-1-1-1-1-1-000-0-0-000-0-0--0-0-0-1s3-3-3--0-0-0-1s3-3-3--------|

G#------------------------------------------------------------------|
C#------------------------------------------------------------------|
E ------------------------------------------------------------------|
B -0-0-0-0-0-0------------------0-0-0-------------------------------|
F#-0-0-0-0-0-0------------------0-0-0----------12----------------12-|
B -1-1-1-1-1-1-000-0-0-000-0-0--0-0-0-10h13-13----0-0-0-10h13-13----|

FIG 7:

G#------------------------------------------------------------|
C#------------------------------------------------------------|
E -77777777-1010101010101010----------------------------------|
B -77777777-1010101010101010-77777777-55555555----------------|
F#-55555555-8-8-8-8-8-8-8-8--55555555-33333333----------------|
B ---------------------------33333333-22222222----------------|

G#-------------------------------------------------------------|
C#-------------------------------------------------------------|
E -77777777-1010101010101010-1212121212121212------------------|
B -77777777-1010101010101010-8-8-8-8-8-8-8-8--1212121212121212-|
F#-55555555-8-8-8-8-8-8-8-8--8-8-8-8-8-8-8-8--1010101010101010-|
B ---------------------------8-8-8-8-8-8-8-8--1010101010101010-|

FIG 8:

G#--------------------|
C#-6s-------6s--------|
E -9s-------9s--------|
B ----0-0-0----0-0-0--|
F#----0-0-0----0-0-0--|
B ----0-0-0----0-0-0--|

FIG 9:

G#-------------------------------------------------------|
C#-------------------------------------------------------|
E ------9-9-9-9-9-9-9-9-10101010-------------------------|
B ------101010101010101010101010-3-3-3-3-3-3-1-1-1-1-1-1-|
F#------121212121212121212121212-3-3-3-3-3-3-1-1-1-1-1-1-|
B -0-0-0-------------------------3-3-3-3-3-3-1-1-1-1-1-1-|

FIG 10:

G#-----------------------|
C#-----------------------|
E -----------------------|
B -00-1-1-00-1-0-0-0-1---|
F#-00-3-3-00-3-0-0-0-3---|
B -00-----00---0-0-0-----|


FIG 11:

G#----------------------------------------------------------------------|
C#----------------------------------------------------------------------|
E ----------------------------------------------------------------------|
B ----------------------------------------------------------------------|
F#----------------------------------------------------------------------|
B -0-0-10h12-12-0-10-0-10-0-10h13-13-13-0-0-10h12-12-0-8-0-7-0-3-3-3-3--|

G#----------------------------------------------------------------------|
C#----------------------------------------------------------------------|
E ----------------------------------------------------------------------|
B ----------------------------------------------------------------------|
F#-----------------------------------12---------------------------------|
B -0-0-10h12-12-0-10-0-10-0-10h13-13----0-0-10h12-12-0-8-0-7-0-3-3-3-3--|

FIG 12:

G#-----------------------------|
C#-----------------------------|
E -----------------------------|
B --------------------8-5-3-0--|
F#--------------------8-5-3-0--|
B -0-0-10h12-12-0-0-0-8-5-3-0--|


BASS

FIG 1:

E --------------------------------------------------------------|
B --------------------------------------------------------------|
F#--------------------------------------------------------------|
B -0000--0000--0000--0000--000000000000000000000000000000000----|

FIG 2:

E --------------------------------------------------------------|
B --------------------------------------------------------------|
F#--------------------------------------------------------------|
B -0-let-ring--------0-0-let-ring-------------------------------|

FIG 3:

E --------------------------------------------------------------|
B --------------------------------------------------------------|
F#--------------------------------------------------------------|
B -0-0-0-0------0-0-0-0-7-7-7-7----0-0-0-0------0-0-0-0-5-5-5-5-|

FIG 4:

E --------------------------------------------------------------|
B --------------------------------------------------------------|
F#--------------------------------------------------------------|
B -0000-3-000000000-55555555-88888888---------------------------|

FIG 5:
E -------------------------------------------------------------------|
B -------------------------------------------------------------------|
F#-5-5-5-5-5-5-5-5-8-8-8-8-8-8-8-8-----------------------------------|
B ---------------------------------3-3-3-3-3-3-3-3-2-2-2-2-2-2-2-2---|

FIG 6:

E -------------------------------------------------------------------|
B -------------------------------------------------------------------|
F#-5-5-5-5-5-5-5-5-8-8-8-8-8-8-8-8-----------------------------------|
B ---------------------------------3-3-3-3-3-3-3-3-2-2-2-2-2-2-2-2---|

E -------------------------------------------------------------------|
B -------------------------------------------------------------------|
F#-5-5-5-5-5-5-5-5-8-8-8-8-8-8-8-8-----------------------------------|
B ---------------------------------8-8-8-8-8-8-8-8-1010101010101010--|

FIG 7:

E --------------------------------------------------------------|
B --------------------------------------------------------------|
F#--------------------------------------------------------------|
B -1-1-1-1-1-1-0-0-0-0-0-0--0-0-0-1s3-3-3--0-0-0-1s3-3-3--------|

E --------------------------------------------------------------|
B --------------------------------------------------------------|
F#-----------------------------------------12----------------12-|
B -1-1-1-1-1-1-0-0-0-0-0-0--0-0-0-10h13-13----0-0-0-10h13-13----|

FIG 8:

E -------------------------------------------------------------------|
B -------------------------------------------------------------------|
F#-5-5-5-5-5-5-5-5-5-8-8-8-8-8-8-8-8---------------------------------|
B -----------------------------------3-3-3-3-3-3-3-3-2-2-2-2-2-2-2-2-|

E --------------------------------------------------------------------|
B --------------------------------------------------------------------|
F#-5-5-5-5-5-5-5-5-5-8-8-8-8-8-8-8-8----------------------------------|
B -----------------------------------8-8-8-8-8-8-8-8-1010101010101010-|

FIG 9:

E ---------------------------------------------------------------|
B ----------------14-14-14-14-15-15-15-15------------------------|
F#-----12-12-12-12-----------------------------------------------|
B 0-0-0----------------------------------3-3-3-3-3-3-1-1-1-1-1-1-|

FIG 10:
E -------------------------------|
B -------------------------------|
F#-------------------------------|
B 000000000000000000000000000000-|

FIG 11:

E ----------------------------------------------------------------------|
B ----------------------------------------------------------------------|
F#----------------------------------------------------------------------|
B -0-0-10h12-12-0-10-0-10-0-10h13-13-13-0-0-10h12-12-0-8-0-7-0-3-3-3-3--|

FIG 12:

E -----------------------------|
B -----------------------------|
F#-----------------------------|
B -0-0-10h12-12-0-0-0-8-5-3-0--|
Tap to rate this tab
 
# A B C D E F G H I J K L M N O P Q R S T U V W X Y Z