Misc Unsigned Bands - Thrashacre - Introduction To Destruction tab

----------------------------------------------------------------------------
	        INTRODUCTION TO DESTRUCTION - Thrashacre
                 GUITARISTS - Noel Ellul & James Hortan
----------------------------------------------------------------------------

Tuning: Standard E (E-A-D-G-B-e)
************************************
thrashacre: www.myspace.com/thrashacre
************************************
listen to song: http://www.youtube.com/watch?feature=player_profilepage&v=Pa-LLz7PjDQ
************************************
| /   slide up
| \   slide down
| h   hammer-on
| p   pull-off
| ~   vibrato
| +   harmonic
| x   Mute note
| b   Bend
| pb  Pre-bend
| br  Bend release
| pbr Pre-bend release
| brb Bend release bend
| ()  left hand tapping
************************************

INTRO

e|----------------------------------------| repeat as many times necessary
B|----------------------------------------|
G|----------------------------------------|
D|-3/4--4/5--5\2--2/3------------5\3-3-2--|
A|-----------------------5-5-5-4----------|
E|-----------------------3-3-3-2----------|

RIFF 1

e|---------------------------| repeat as many times necessary
B|---------------------------|
G|---------------------------|
D|---------------------------|
A|-----2-------3-4-----------|
E|-0-0-0-0-0-0-1-2-0-0-0-0-0-|
 PM***   *****     *********

SOLO 1 (fingertapping)

e|-(12)p7p5-(12)p7p5-(12)p7p5-(12)p7p5-(13)p7p5-(13)p7p5-(13)p7p5-(13)p7p5-|
B|-------------------------------------------------------------------------|
G|-------------------------------------------------------------------------|
D|-------------------------------------------------------------------------|
A|-------------------------------------------------------------------------|
E|-------------------------------------------------------------------------|

e|-(13)p7p5-(13)p8p6-(13)p8p6-(13)p8p6-(13)p8p6-|
B|----------------------------------------------|
G|----------------------------------------------|
D|----------------------------------------------|
A|----------------------------------------------|
E|----------------------------------------------|

repeat RIFF 1

BREAKDOWN

e|-12p11p10-12p11p10-12p11p10-12p11p10-12p11p10-12p11p10-10h11h-12b--------|
B|-------------------------------------------------------------------------|
G|-------------------------------------------------------------------------|
D|-------------------------------------------------------------------------|
A|-------------------------------------------------------------------------|
E|-------------------------------------------------------------------------|

repeat RIFF 1

SOLO 2

e|----------9-11--------8-10--12p10-11p10------------------------12-----|
B|-12-11-10------11-10-9-----------------12-11-10-11--12p10h12p10-------|
G|----------------------------------------------------------------------|
D|----------------------------------------------------------------------|
A|----------------------------------------------------------------------|
E|----------------------------------------------------------------------|

repeat RIFF 1

repeat BREAKDOWN

OUTRO

e|---------------------------------------------------------------------|
B|---------------------------------------------------------------------|
G|---------------------------------------------------------------------|
D|---------------------------------------------------------------------|
A|-2-2-2---2-2-2---2---------------------------------------------------|
E|-0-0-0---0-0-0---0---------------------------------------------------|
 PM*****   ***** 
Tap to rate this tab
 
# A B C D E F G H I J K L M N O P Q R S T U V W X Y Z