Misc Unsigned Bands - Damnear Divine - Didnt You Get The Memo tab

Damnear Divine
Didn't you get the memo 
Tuning : C# G# C# F# A# D#

Intro

D#|-----------------------------| 
A#|-----------------------------|
F#|-----------------------------|
C#|--00--00--0000---------------|
G#|--00--00--0000---------------|
C#|--00--00--0000---------------|

Verse x2

D#|----------------------------------------------------------------| 
A#|----------------------------------------------------------------|
F#|--777777777777--777777777777--777777777777--999999999999--------|
C#|--777777777777--777777777777--555555555555--777777777777--------|
G#|--555555555555--444444444444--555555555555--777777777777--------|
C#|------------------------------555555555555--777777777777--------|

Pre Chorus x1

D#|--------------------------------------------------------------------------------| 
A#|--------------------------------------------------------------------------------|
F#|--11111111111111111111111111111111--9999999999999999--7777777777777777----------|
C#|--X-X-X-X-X-X-X-X-X-X-X-X-X-X-X-X---XXXXXXXXXXXXXXXX--XXXXXXXXXXXXXXXX----------|
G#|--9-9-9-9-9-9-9-9-9-9-9-9-9-9-9-9---7777777777777777--5555555555555555----------|
C#|--------------------------------------------------------------------------------|

D#|------------------------------------| 
A#|------------------------------------|
F#|------------------------------------|
C#|--00-00-00-00-000-000-00-00-00------|
G#|--00-00-00-00-000-000-00-00-00------|
C#|--00-00-00-00-000-000-00-00-00------|

Chorus x3

D#|--------------------------------------| 
A#|--------------------------------------|
F#|--77777/-99999/-11111111111111/-9/----|
C#|--55555/-77777/-9-9-9-9-9-9-9/--7/----|
G#|--55555/-77777/-9-9-9-9-9-9-9/--7/----|
C#|--55555/-77777/-9-9-9-9-9-9-9/--7/----|

Chours Outro x1

D#|-----------------------------------| 
A#|-----------------------------------|
F#|--77777/-99999/-7-7-7-7-7-7-7-7----|
C#|--55555/-77777/-5-5-5-5-5-5-5-5----|
G#|--55555/-77777/-5-5-5-5-5-5-5-5----|
C#|--55555/-77777/-5-5-5-5-5-5-5-5----|

D#|-----------------------------| 
A#|-----------------------------|
F#|-----------------------------|
C#|--00--00--0000---------------|
G#|--00--00--0000---------------|
C#|--00--00--0000---------------|

Verse x2

D#|----------------------------------------------------------------| 
A#|----------------------------------------------------------------|
F#|--777777777777--777777777777--777777777777--999999999999--------|
C#|--777777777777--777777777777--555555555555--777777777777--------|
G#|--555555555555--444444444444--555555555555--777777777777--------|
C#|------------------------------555555555555--777777777777--------|

Pre Chorus x1

D#|--------------------------------------------------------------------------------| 
A#|--------------------------------------------------------------------------------|
F#|--11111111111111111111111111111111--9999999999999999--7777777777777777----------|
C#|--X-X-X-X-X-X-X-X-X-X-X-X-X-X-X-X---XXXXXXXXXXXXXXXX--XXXXXXXXXXXXXXXX----------|
G#|--9-9-9-9-9-9-9-9-9-9-9-9-9-9-9-9---7777777777777777--5555555555555555----------|
C#|--------------------------------------------------------------------------------|

D#|--------------------------| 
A#|--------------------------|
F#|--66666666/-7777/-9999----|
C#|--XXXXXXXX/-XXXX/-XXXX----|
G#|--44444444/-5555/-7777----|
C#|--------------------------|

Pre Chorus Outro into BreakDown one x1

D#|--------------------------------------------------------------------------| 
A#|--------------------------------------------------------------------------|
F#|--11111111111111111111111111111111--9999999999999999--7777777777777777----|
C#|--X-X-X-X-X-X-X-X-X-X-X-X-X-X-X-X---XXXXXXXXXXXXXXXX--XXXXXXXXXXXXXXXX----|
G#|--9-9-9-9-9-9-9-9-9-9-9-9-9-9-9-9---7777777777777777--5555555555555555----|
C#|--------------------------------------------------------------------------|

D#|-------------------------------------------------------------------------| 
A#|-------------------------------------------------------------------------|
F#|-------------------------------------------------------------------------|
C#|-00-00-00-00-00000000-00-00-00-00-00000000-00-00-00-00-00000000-00-00-00-|
G#|-00-00-00-00-00000000-00-00-00-00-00000000-00-00-00-00-00000000-00-00-00-|
C#|-00-00-00-00-00000000-00-00-00-00-00000000-00-00-00-00-00000000-00-00-00-|

Chorus x3

D#|--------------------------------------| 
A#|--------------------------------------|
F#|--77777/-99999/-11111111111111/-9/----|
C#|--55555/-77777/-9-9-9-9-9-9-9/--7/----|
G#|--55555/-77777/-9-9-9-9-9-9-9/--7/----|
C#|--55555/-77777/-9-9-9-9-9-9-9/--7/----|

Chours Outro x1

D#|-----------------------------------------------------| 
A#|-----------------------------------------------------|
F#|--77777/-99999/-7-7-7-7-7-7-7-7-7-7-7-7-7-7-7-7-7----|
C#|--55555/-77777/-5-5-5-5-5-5-5-5-5-5-5-5-5-5-5-5-5----|
G#|--55555/-77777/-5-5-5-5-5-5-5-5-5-5-5-5-5-5-5-5-5----|
C#|--55555/-77777/-5-5-5-5-5-5-5-5-5-5-5-5-5-5-5-5-5----|

Bridge x1

D#|----------------------------| 
A#|----------------------------|
F#|----------------------------|
C#|--00--77--55--77-0000000----|
G#|--00--77--55--77-0000000----|
C#|--00--77--55--77-0000000----|

Break Down x1

D#|-------------------------------------------------------------------| 
A#|-------------------------------------------------------------------|
F#|-------------------------------------------------------------------|
C#|--00-00-000-000-00-00-000-000-11-11-11111111-00-00-00000000-00-00--|
G#|--00-00-000-000-00-00-000-000-11-11-11111111-00-00-00000000-00-00--|
C#|--00-00-000-000-00-00-000-000-11-11-11111111-00-00-00000000-00-00--|

Chorus x3

D#|--------------------------------------| 
A#|--------------------------------------|
F#|--77777/-99999/-11111111111111/-9/----|
C#|--55555/-77777/-9-9-9-9-9-9-9/--7/----|
G#|--55555/-77777/-9-9-9-9-9-9-9/--7/----|
C#|--55555/-77777/-9-9-9-9-9-9-9/--7/----|

Chours Outro x1

D#|-----------------------------------------------------| 
A#|-----------------------------------------------------|
F#|--77777/-99999/-7-7-7-7-7-7-7-7-7-7-7-7-7-7-7-7-7----|
C#|--55555/-77777/-5-5-5-5-5-5-5-5-5-5-5-5-5-5-5-5-5----|
G#|--55555/-77777/-5-5-5-5-5-5-5-5-5-5-5-5-5-5-5-5-5----|
C#|--55555/-77777/-5-5-5-5-5-5-5-5-5-5-5-5-5-5-5-5-5----|

Outro X1

D#|------------| 
A#|------------|
F#|------------|
C#|-----00-----|
G#|-----00-----|
C#|-----00-----|


Tap to rate this tab
 
# A B C D E F G H I J K L M N O P Q R S T U V W X Y Z