Misc Unsigned Bands - Borderlines - Where Giving Up Gets You tab

Tuning: Drop B--> B F# B E G# C#
go to www.youtube.com and search borderlinesnj
Key:
H--hammer ons
P--pull offs
PH--pinch harmonics
PM-palm mute
~--open note

Intro:                                          |--PM--|
B |-0~------------0~-------------0~------------0-0000000-------------------|
F#|-0~------------0~-------------0~------------0-0000000-------------------|
B |-0~------------0~-------------0~------------0---------------------------|
E |----9---9---------9---9---------9---9-----------------9---9-------------|
G#|------6-----6-------6-----6-------6-----6---------------6-----6~--------|
C#|----------8-------------8-------------8---------------------8-----------|

Breakdown 1 (All Palm Muted)
B |-000-0--0-0-0-0000-0000-\----------111-1--1-1-1-1111-1111-\-------------|
F#|-000-0--0-0-0-0000-0000-/ 4 TIMES--000-0--0-0-0-0000-0000-/ 4 TIMES-----|
B |------------------------------------------------------------------------|
E |------------------------------------------------------------------------|
G#|------------------------------------------------------------------------|
C#|------------------------------------------------------------------------|

Verse 1 |PM|   PM                      |PM|   PM
B |-0~--000-0~-00-------------------3~-333-3~-33---------------------------|
F#|-0~--000-0~-00-------------------3~-333-3~-33--12----------12-----------|
B |-0~---------------0~------0~-----3~---------------10----10----10----10--|
E |-------------------9-------9-------------------------12----------12-----|
G#|---------------------6-------6------------------------------------------|
C#|-----------------------8-------8----------------------------------------|

       |PM|   PM
B |-5~-555-5~-55--------------------------3~-333-3~-33---------------------|
F#|-5~-555-5~-55--------------------------3~-333-3~-33---------------------|
B |-5~-----------17----------17------------------------12------12----------|
E |-----------------16----16----16----16-----------------10--10-- 10---10--|
G#|--------------------13----------13----------------------12--------12----|
C#|------------------------------------------------------------------------|
                   REPEAT VERSE 1 TWICE (2 TIMES)

    PM    |PM| BREAKDOWN 2          PM    |PM|
B |-11-1~-111-1~--\-----------------22-2~-222-2~\--------------------------|
F#|-00-0~-000-0~---\----------------11 1~-111-1~-\-------------------------|
B |----------------/ REPEAT 4 TIMES--------------/--REPEAT 4 TIMES---------|
E |---------------/-----------------------------/--------------------------|
G#|------------------------------------------------------------------------|
C#|------------------------------------------------------------------------|

Verse 2 |PM|   PM                      |PM|   PM
B |-0~--000-0~-00-------------------3~-333-3~-33---------------------------|
F#|-0~--000-0~-00-------------------3~-333-3~-33--12----------12-----------|
B |-0~---------------0~------0~-----3~---------------10----10----10----10--|
E |-------------------9-------9-------------------------12----------12-----|
G#|---------------------6-------6------------------------------------------|
C#|-----------------------8-------8----------------------------------------|

       |PM|   PM
B |-5~-555-5~-55--------------------------3~-333-3~-33---------------------|
F#|-5~-555-5~-55--------------------------3~-333-3~-33---------------------|
B |-5~-----------17----------17------------------------12------12----------|
E |-----------------16----16----16----16-----------------10--10-- 10---10--|
G#|--------------------13----------13----------------------12------  12----|
C#|------------------------------------------------------------------------|
                   REPEAT VERSE 2 TWICE (2 TIMES)

Verse 3 |--PM-|            |--PM-|          |--PM-|         |--PM------------|
B |-----777-7-7------------555-5-5----------333-3-3---------555-5-5----------|
F#|-----777-7-7------------555-5-5----------333-3-3---------555-5-5----------|
B |------------------10----------------5------------3-5---5---------5-7---7--|
E |-------------10-9----9----------9-7---7--------------2---------------4----|
G#|--------------------------------------------------------------------------|
C#|--------------------------------------------------------------------------|
                   REPEAT VERSE 3 (4 TIMES)

Breakdown 3     |----PM----------------------------------------------|
B |-0~-0~-0~----111-11-11-11--\--------------------------------------|
F#|-0~-0~-0~----000-00-00-00---\-------------------------------------|
B |-0~-0~-0~-------------------/-REPEAT 4 TIMES----------------------|
E |---------------------------/--------------------------------------|
G#|------------------------------------------------------------------|
C#|------------------------------------------------------------------|

Outro                                            |--PM-|
B |-0~------------0~-------------0~------------0-0000000-------------------|
F#|-0~------------0~-------------0~------------0-0000000-------------------|
B |-0~------------0~-------------0~------------0---------------------------|
E |----9---9---------9---9---------9---9-----------------21----21----------|
G#|------6-----6-------6-----6-------6-----6----------------18-------18----|
C#|----------8-------------8-------------8------------------------20-------|


IMPORTANT: the breakdown in the video is being changed as we speak i will put the new 
breakdown below this and the old one is above this notice!! THANK YOU
Wait for toms to go 123 12 123 12 then guitar goes
       |----------PM---------------------------------------------------------|
B |-0~-000-00-0---111-11-111-11--\-------------------------------------------|
F#|-0~-000-00-0---000-00-000-00---\------------------------------------------|
B |-0~----------------------------/--REPEAT 4 TIMES--------------------------|
E |------------------------------/-------------------------------------------|
G#|--------------------------------------------------------------------------|
C#|--------------------------------------------------------------------------|
Tap to rate this tab
 
# A B C D E F G H I J K L M N O P Q R S T U V W X Y Z