Misc Unsigned Bands - Greatest Gatsby - Hands Held High tab

Hands Held High
Greatest Gatsby
Written by Jacob Rabin
Tabbed by Jake Adams

Drop-d Tuning

b=bend  p=palm mute  h=hammer-on  o=pull-off  _=hold



Main Riff/Chorus:
e|----------------------------------------------------------------|
B|----------------------------------------------------------------|
G|----------------------------------------------------------------|
D|--------------------------------7-7-7-7-7-7-7-7-7-7-7-7-7-7-7-7-|
A|3-3-3-3-3-3-3-3-5-5-5-5-5-5-5-5-5-5-5-5-5-5-5-5-5-5-5-5-5-5-5-5-|
D|3-3-3-3-3-3-3-3-5-5-5-5-5-5-5-5---------------------------------|

Verse:
e|---------------------------------------------------------------|
B|---------------------------------------------------------------|
G|---------------------------------------------------------------|
D|-----------------------------------------------------7-------7-|
A|-----------------------------------------------5p-5p---5p-5p---|
D|3p-3p-3p-3p-3p-3p-3p-3p-5p-5p-5p-5p-5p-5p-5p-5p----------------|

e|--------------------------|
B|--------------------------|
G|--------------------------|
D|---7-------7-------7----7-|
A|5p---5p-5p---5p-5p---5p---|
D|--------------------------|

Post Chorus:
e|----------------------------------------------------------------|
B|----------------------------------------------------------------|
G|12-10-12-12b-10-12--12-10-12-12b-1012h10o--------10-------------|
D|------------------------------------------12__12----12_10_12-10-|
A|----------------------------------------------------------------|
D|----------------------------------------------------------------|

Solo:
e|----------------------------------------------------------------|
B|----------------------------------------------------------------|
G|12-10-12-12b-10-12--12-10-12-12b-1012h10o--------10-------------|
D|------------------------------------------12__12----12_10_12-10-|
A|----------------------------------------------------------------|
D|----------------------------------------------------------------|

e|----------------------------------------------------------------|
B|----------------------------------------------------------------|
G|12-10-12-12b-10-12--12-10-12-12b-1012h10o--------10-------------|
D|------------------------------------------12__12----12_10_12-10-|
A|----------------------------------------------------------------|
D|----------------------------------------------------------------|

e|-------------------------------------------------------------|
B|-------------------------------------13-13-13-13-------------|
G|1214h14141214h14141214h14141214h1414-------------14-14-12-10-|
D|-------------------------------------------------------------|
A|-------------------------------------------------------------|
D|-------------------------------------------------------------|

e|----------------------|
B|----------------------|
G|-------10-------------|
D|12__12----12_10_12-10-|
A|----------------------|
D|----------------------|

Outro:
e|-----------------------------------------------------------------------|
B|-----------------------------------------------------------------------|
G|-----------------------------------------------------------------------|
D|--------------------------------7-7-7-7-7-7-7-7-7-7-7-7-7-7-7-7-7------|____
A|3-3-3-3-3-3-3-3-5-5-5-5-5-5-5-5-5-5-5-5-5-5-5-5-5-5-5-5-5-5-5-5-5------|____
D|3-3-3-3-3-3-3-3-5-5-5-5-5-5-5-5----------------------------------------|

Order It Goes In:
Main Riff(x4)
Verse(x2)
Chorus(x2)
Post Chorus (x2)
Verse(x2)
Chorus(x2)
Solo
Outro
Tap to rate this tab
 
# A B C D E F G H I J K L M N O P Q R S T U V W X Y Z