Misc Unsigned Bands - Hello Hollywood - Now I Wonder tab

-------------------------------------------------------------------------------
			     Now I Wonder - Hello Hollywood
-------------------------------------------------------------------------------
Tabbed by: tymanzz
Email: tyman17@hotmail.com

This is my first tab, and I really like Hello Hollywood. However, there are absolutely 
NO tabs on them on the internet so I did my best to sound some of it out.

Bear with me!

Tuning: Standard

Intro/Verse  (basically these three chords the whole time)
e|--------------------------------------------------------------------------|
B|-----3--------------------------------------------------------------------|
G|-2---3----1---------------------------------------------------------------|
D|-4---3----2---------------------------------------------------------------|
A|-4--------2---------------------------------------------------------------|
E|--------------------------------------------------------------------------|


Chorus
e|--------------------------------------------------------------------------|
B|-33320--------------------------------------------------------------------|
G|-22222--2-------2------1--------------------------------------------------|
D|--------2-------4------2--------------------------------------------------|
A|----------------4------2--------------------------------------------------|
E|--------------------------------------------------------------------------|
Tap to rate this tab
 
# A B C D E F G H I J K L M N O P Q R S T U V W X Y Z