Misc Unsigned Bands - Voodoo Children - Vengeance tab

This is the rhythm part

Intro (clean effect)

E--123-332-44/7-77/12-13-13-112/6-6\4/5~-|
F---------------------11-12--------------|
G----------------------------------------|
D----------------------------------------|
A----------------------------------------|
E----------------------------------------|

Intro Cont'd (clean effect)

E46654567-0-6-6-0----12\6-0-x---|x}
F46654567-0-6-6-0---------0-x/x-|
G46654567-0-6-6-0---------0-x/x-|
D35543456-0-4-6-0-----------x/x-|
A35543456-0-4-6-0-----------x/x-|
E35543456-0-4-6-0-----------x/x-|

Chorus x4 (distortion effect)

E-------------------------------|8^
F-------------------------------|8^
G-------------------------------|0^>>>>>PLAY ONLY ON 4TH TIME
D-------------------------------|7^
A-------8------8-----8------7---|5^
E-666666866666686666686666667---|6^

Bass Solo w/guitar undertones x3 (Keep Distortion)
E----------------------------------------------19^
F161616171816161616161616171818171617171816171819^
G161616161616161616161616161616171717161617171819^
D------------------------------------------------|
A------------------------------------------------|
E------------------------------------------------|

Chorus x4 (distortion effect)

E-------------------------------|8^
F-------------------------------|8^
G-------------------------------|0^>>>>>PLAY ONLY ON 4TH TIME
D-------------------------------|7^
A-------8------8-----8------7---|5^
E-666666866666686666686666667---|6^

Outro
E----8^------|
F----8^----0-|
G----0^---00-|
D----7^---00-|
A----5^---00-|
E----6^---00-|
Tap to rate this tab
 
# A B C D E F G H I J K L M N O P Q R S T U V W X Y Z