Misc Unsigned Bands - Gran Via - Adeline chords

Highlighted       Show chord diagrams
-------------------------------------------------------------------------------
			    ADELINE - Gran Via
-------------------------------------------------------------------------------
Tabbed by:Chachi Joaquin
Email:arexjoaquin@gmail.com
April 2011

INTRO
F5 G5 B5 C5 F5 E5 A A

Chorus Riff (D-A-G-A)

e|-------------3--------5----------------3--------------------------------|
B|--7-7--5\3---3-3/5----5-----7-7--5\3---3-3/5----5-----------------------|
G|--7-7--6\4---4-4/-----6-----7-7--6\4---4-4/-----6-----------------------|
D|--7-7--7\5-5-5-5/7-7--7-----7-7--7\5-5-5-5/7-7--7-----------------------|
A|--5-5--7-5-5-5-5/7-7--7-----5-5--7-5-5-5-5/7-7--7-----------------------|
E|------------------------------------------------------------------------|

e|-------------3--3---------5-5--------------3------------------------|
B|--7-7--5\3---3----3-------------7-7--5\3---3-3-3-3--2-2-------------|
G|--7-7--6\4---4------4--4/6----6-7-7--6\4---4-4-4-4--2-2-------------|
D|--7-7--7\5-5-5------------------7-7--7\5-5-5-5-5-5--2-2-------------|
A|--5-5--7-5-5-5------------------5-5--7-5-5-5-5------0-0-------------|
E|--------------------------------------------------------------------|



     D              G              A              D Dsus2 D
She sits at home on Adeline, she's staring at the door
     D           G              A               D   
Temptation of a different kind wakes around the room
     D           G              A
She married him way before her time
     D              G      A
She knew she had to go far away for awhile.


CHORUS:

(play chorus riff over lyrics)

  D A G A              D A G A
Secretly she's getting stronger
  D  A         G    A              D  A G A
Everything you know about her is wrong

 D                      G             A                 D Dsus2 D
Things she thought when she was young become convincing once again
 D              G                   A           A
Walking to the station, she'll be listening to Hole
 D                 G                A
Her ticket for the train is til the end
 D                   G           A
She knows she has to start over again (and it makes her happy).

CHORUS:

(play chorus riff over lyrics)

  D A G A              D A G A
Secretly she's getting stronger
  D  A         G    A              D  A G A
Everything you know about her is wrong

BRIDGE:

F5 G5 B5 C5 F5 E5 A A

SOLO: 

D  G  A  D
D  G  A  D

(play chorus riff)
 
F5 G5 B5 C5 F5 E5 A A

(play chorus riff over lyrics below)
  
D A G A              D  A  G  A
Whoah, she's getting stronger
D    A         G     A           D   A  G A 
Everything you know about her is wrong.


************************************

| /   slide up
| \   slide down

************************************
Tap to rate this tab
 
# A B C D E F G H I J K L M N O P Q R S T U V W X Y Z