Song name
# A B C D E F G H I J K L M N O P Q R S T U V W X Y Z

Misc Unsigned Bands - Stepan Rak - The Porcelain Tower tab

Standard Tuning
st: staccato 
4/4 Time Signature

                                                            st
  |       |       |       |         |       |       |       |
|---------------------------------|---------------------------------|
|-----------------0---------------|-----------------0-------2-------|
|-2---------------1---------------|---------2-------1-------0-------|
|-0---------------1---------------|---------0-------1-------0-------|
|-2---------------0---------------|---------2-------0-------2-------|
|---------------------------------|---------------------------------|

                  st
  |       |       |         |         |       |   
|-------------------------|---------------------------|
|-2---------------0-------|-0-----------------3-------|
|-0---------------4-------|-4---------2-------0-------|
|-0---------------3-------|---------------------------|
|-----------------0-------|---------------------------|
|-3-----------------------|---------------------------|

                                    st
  |       |       |       |         |       |       |
|---------2-----------------------|-0-------0---------------|
|-4-------4---------------2-------|-0-------0---------------|
|-3-----------------------2-------|-0-------0---------------|
|-2-------2---------------4-------|-------------------------|
|---------------------------------|-3-----------------------|
|-2-------------------------------|-------------------------|


  |       |       |   .     |       |       |         .   .   .
|---------2-------3---2---|-------------------------|-9-------9---|
|-4-------4-------4-------|-4-------2---------------|-------------|
|-3-------3-------0-------|---------4---------------|-------------|
|-4-----------------------|-2-----------------------|-------------|
|-2---------------3-------|-0-----------------------|-------------|
|-------------------------|-------------------------|-------------|


  .   .   .     .   .   .     |       |       |       |        .   .   .    
|-9-8-0=======|=0-------9///|/12------11---------11p8p0------|-0-----------|
|-----------0-|-0-----------|--------------------------------|-4-----------|
|-----------5-|-5-----------|--------------------------------|-4-----------|
|-------------|-------------|--------------------------------|-------------|
|-----------0-|-0-----------|--------------------------------|-------------|
|-------------|-------------|--------------------------------|-4-----------|

                                            st
  |       |       |       |         |   .   |       |       |
|---------------------------------|--------------------------------||
|-----------------0---------------|-----2---2----------------------||
|-2---------------1---------------|-----4---4----------------------||
|-0---------------0---------------|-----2---2----------------------||
|-2---------------1---------------|---------0----------------------||
|---------------------------------|--------------------------------||
Tap to rate this tab
 
# A B C D E F G H I J K L M N O P Q R S T U V W X Y Z