Misc Unsigned Bands - Gran Via - Marina chords

Highlighted       Show chord diagrams
-------------------------------------------------------------------------------
			     MARINA - Gran Via
-------------------------------------------------------------------------------
Tabbed by: Chachi Joaquin
April 2011

Main riff:
    G      D        B5    C         G       D       B5  C   
e|---------------------------------------------------------------------------|
B|-----------------------------0----------------------0----0-----------------|
G|----------4-----------0-------------------4--------------------------------|
D|------4h5---5-4h5---------------------4h5---5-4h5--------------------------|
A|-------------------2----3-3-----------------------2---3-3------------------|
E|--3-3-----------------------------3-3--------------------------------------|
 
    G        D       B5   C      G      D         B5       C 
e|---------------------------------------------------------------------------|
B|----------------------------0----------------------------------------------|
G|-----------4---------0-----------------4-----------------------------------|
D|-------4h5---5-4h5-----------------4h5---5-4h5--5-4------4-5---------------|
A|-------------------2----3-3-------------------------5-7--------------------|
E|--3-3--------------------------3-3-----------------------------------------|

Song: 

Main Riff

G5  D5     B5      C5           G5 D5 B5 C5 
I sensed a restlessness in the crowd
G5  D5            B5  C5           G5 D5 B5 C5
It started at the far side of the room

A   C      G       D G C
Marina accidentally
A   C      G       D G C
Marina all alone
A   C              D                 C     
Marina, I'm just seconds away from a better life
     B              A  C  D       G (main riff)
And happiness when Marina walked in.

G5  D5     B5      C5           G5 D5 B5 C5 
A smile that blew a kiss to the sun (at night at night at night)
G5  D5     B5      C5  G5    D5  B5       C5 
How gently she wishes me goodbye, and I see

A   C          G         D G C
Marina on her cell phone
A   C           G    D G C
Marina touching snow
A   C              D                 C     
Marina I'm just seconds away from a better life
B              A  C         D     G 
And happiness when Marina walked in.

BRIDGE

G D Bm C
G D Bm C
G D Bm C
G D G Em

A   C                           D              G    
Marina, Marina all the common things seem good again and I'm
            D                  G
starting at heaven when you're around
              D                G 
a breeze that always lifts you up
             A   C  D      G
Is like when Marina walks in.

Main Riff

END

************************************

| /   slide up
| \   slide down
| h   hammer-on
| p   pull-off
| ~   vibrato
| +   harmonic
| x   Mute note
| b   Bend
| pb  Pre-bend
| br  Bend release
| pbr Pre-bend release
| brb Bend release bend

************************************
Tap to rate this tab
 
# A B C D E F G H I J K L M N O P Q R S T U V W X Y Z