Song name
# A B C D E F G H I J K L M N O P Q R S T U V W X Y Z

Misc Unsigned Bands - Gran Via - Fall chords

Highlighted       Show chord diagrams
-------------------------------------------------------------------------------
			    FALL - Gran Via
-------------------------------------------------------------------------------
Chords by: Chachi Joaquin
Email: April 2011

Notes:
*********************************************************************
Main Riff

   F#               C#         B
e|-11--11--11--11---9----9----9----9--------------------------------|
B|---11--11--11--11---11---11---12---11-----------------------------|
G|------------------------------------------------------------------|
D|------------------------------------------------------------------|
A|------------------------------------------------------------------|
E|------------------------------------------------------------------|

Verse Chord Fingering:

     F#       C#    B
e|------------------------------------------------------------------|
B|---11-------9-----7-----------------------------------------------|
G|---11-------11----8-----------------------------------------------|
D|---11-------12----9-----------------------------------------------|
A|---9--------12----9-----------------------------------------------|
E|------------9-----7-----------------------------------------------|

*********************************************************************

Song:

Main Riff

F#           C#      B
I'm waiting for your call
F#           C#      B
And when, when you fall
F#                C#      B
I'll be there to pick you up
    F#             C#      B
And hold you in my arms again

Main Riff

F#              C#      B
Are you waiting for my call
F#          C#    B
And when, when I fall
F#                   C#      B
Will you be there to pick me up
F#                  C#      B
And hold me in your arms again

G#5 B5 C#5
G#5 B5 C#5
G#5 B5 C#5
G#5 C#5 B5

Solo (over verse chords)

Main Riff

F#               C#   B
We don't have to be alone
F#               C#   B
We don't have to be alone
F#               C#   B
We don't have to be alone

G#5 B5 C#5
G#5 B5 C#5
G#5 B5 C#5
G#5 C#5 B5

Outro (over verse chords)

************************************

| /   slide up
| \   slide down
| h   hammer-on
| p   pull-off
| ~   vibrato
| +   harmonic
| x   Mute note
| b   Bend
| pb  Pre-bend
| br  Bend release
| pbr Pre-bend release
| brb Bend release bend

************************************
Tap to rate this tab
 
# A B C D E F G H I J K L M N O P Q R S T U V W X Y Z