Song name
# A B C D E F G H I J K L M N O P Q R S T U V W X Y Z

Misc Unsigned Bands - Absent Akridge - Never Married Widowed Men tab

This band here is from my home town. Great music. And if you're looking at this tab, hit 
me up because you obviously have great taste! In this tab i'll give you some 
formations, the simple acoustic picking pattern and the lyrics with the chords.



Formations:
If you noticed in the album version there's a little change up in the G chord when it's 
played in the strumming which is easily played in the chord formation below.

     D       G       G
e|---x-------x-------x----|
B|---x-------x-------x----|
G|---7-------x-------x----|
D|---7-------5-------4----|
A|---5-------5-------5----|
E|---x-------3-------3----|



Acoustic picking pattern:

e|-------0-------0-------0-------0-------0-------0-------0-------|
B|-----3---3---3---3---3---3---3---3---3---3---3---3---3---3-----|
G|---2-------2-------2-------2-------2-------2-------2-------2---|
D|---------------------------------------------------------------|
A|---------------------------------------------------------------|
E|---------------------------------------------------------------|

e|-------0-------0-------0-------0-------0-------0-------0-------|
B|-----3---3---3---3---3---3---3---3---3---3---3---3---3---3-----|
G|---0-------0-------0-------0-------0-------0-------0-------0---|
D|---------------------------------------------------------------|
A|---------------------------------------------------------------|
E|---------------------------------------------------------------|



Chords and Lyrics;

       D
Broken wrists and a picture of the hotel's front door
         D
Pictures this, tangled bodies on the backroom's cold floor
    G
And everything's reflecting the weather
      G
Yeah, everything's affected by the weather
    D
Sit alone on your porch and smoke yourself to sleep
       D
In the rocking chair she gave you so you had to keep
        G
And the clouds in your eyes match the ones outside
       G
Do the clouds in your eyes fuck with your eyesight?

       D
Ripped jeans, skinned knees, and the kid with the cash
     D
Bare feet, car keys, can we please go back?
G
    And if it hadn't rained that day
   G
We couldn't tell the difference either way
      D
Every color looked brighter when everything I saw was
           G
grey, yeah

  D
I think those days were long
I think those days were long
  G
I think those days were long
I think those days were long

D
  You can't regret what you don't recall
And I don't remember anything that happened since last fall
G
  And I'm okay with that
                             D
No, all we did was laugh and walk these sober streets with nowhere to go
Lost and didn't care if we ever got home
         G
We would sing off key and talk quietly
Hang out at coffee shops and load up on caffeine
  D
I think those days were long
I think those days were long
  G
I think those days were long
I think those days were long
  D
I think those days were long
I think those days were long

G
Those days are long gone
(Those days are long gone)
Those days are long gone
(Those days are long gone)

Hope this all helps! Later!
Tap to rate this tab
 
# A B C D E F G H I J K L M N O P Q R S T U V W X Y Z