Misc Unsigned Bands - Me32 - 356 tab

----------------------------------------------------------------------------
                             356
----------------------------------------------------------------------------
tabbed by kw32

Intro/verse
e----------------|-------------|
b----------------|-------------|
g----------------|-------------|
d-7xx7x7x777-----|-5xx5x5x555--|
a-7xx7x7x777-----|-5xx5x5x555--|
e-5xx5x5x555-----|-3xx3x3x333--|

Pre chorus(b string only)
b--89-89-89-89-89-89-89-89-89-89-89~~9#

Chorus
e----------------------|  Note:When you hit the b string fret 5, its the 
b-----------5----------|  little noise you hear in beetween change of chords
g----------------------|
d-55-555-5-5-22-xxx-2-2|
a-55-555-5-5-22-xxx-2-2|
e-33-333-3-3\00-000-0-0|

Bridge (really fast)  
e--------------------------------------------|-------------------|
b--------------------------------------------|5-4-3-2---1111111xx|
g--------------------"well"------------------|-------------------|
d44444444xxxxxxxxxxxxx---xxxxxxxxxxxxxxxxxxxx|-------------------|
a44444444444444444444400-77777777777777777777|-------------------|
e222222222222222222222---55555555555555555555|-------------------|

Solo (kinda fast e+b+g string only!)
e9-9-9-9-9-9-9-9-9-9-9-9-9-9-9-9-9-9-9-9-9-9-9-9-9|5--5--5--5--5--5--|
b-8-8-8-8-8-8-8-8-8-8-8-8-8-8-8-8-8-8-8-8-8-8-8-8-|-6--6--6--6--6--6-|
g-------------------------------------------------|--7--7--7--7--7--7|
PM                                            ****

e--222222------|
b--------777777|
d--------------|
 PM************

Outro
Guitar1
e---------------------------|
b---------------------------|
g---------------------------|
d9--9--9--9--9--9--9--9---9#|
a99~99~99~99~99~99~99~99~~9#|
e7--7--7--7--7--7--7--7---7#|

guitar2(this is only pre recorded)a string only
a999999999999999999999999999|

Order
Intro-verse x20
pre chorus
chorus x2
intro-verse x10
pre chorus
chrous x2
bridge 
solo
outro
intro/verse x1
THIS IS A MADE UP RIFF PLAYED BY THE BAND ME32
Tap to rate this tab
 
# A B C D E F G H I J K L M N O P Q R S T U V W X Y Z