Song name
# A B C D E F G H I J K L M N O P Q R S T U V W X Y Z

Misc Unsigned Bands - A Kiss Before Dying - Puddles And Mirrors tab

Another song I've been writing. Same deal with this one. Not finished, but will be.

Tuning: D A D G B e (Drop D)

(/)= Optional slide

e|--------------------------|-----------------------------|
B|--------------------------|-----------------------------|
G|-------------5------------|-----------------------------|
D|-----8-7-5-------8-7-5----|-----8-7-5---8-------7-------|
A|---5-------5---5-------5--|---5-------5---10------8-----|
D|-5------------------------|-5----------------12-----10--|

e|--------------------------|----------------------------------------------------|
B|--------------------------|----------------------------------------------------|
G|-------------5------------|----------------------------------------------------|
D|-----8-7-5-------8-7-5----|-----8-7-5---10p7-8p7----8p5-7p5(/)4-------6-5-3-2--|
A|---5-------5---5-------5--|---5-------5----------10-----------------3----------|
D|-5------------------------|-5-----------------------------------8-3------------|

e|--------------------------|
B|--------------------------|
G|--------------------------|
D|-12\10-9/10-5-9-9/10------|
A|-10\8--7/8--2-5-7---------|
D|-12\10-8/10-3-7-8---------|

Then the bass will fade in and I will come in at the same time with the cymbol roll (I 
think thats what it's called)
and you count to 9 and come in right on 9 with the following:

e|----------------------------------------------------------------------|
B|----------------------------------------------------------------------|
G|----------------------------------------------------------------------|
D|-----------------------------------------------------7p5-----5p3-2/3--|
A|-0-0-0-0-0-0-3-8-8-8-8-8-8-7-5-5-5-5-5-5-3-8-8-8-8-8-----8p7----------|
D|-0-0-0-0-0-0-3-8-8-8-8-8-8-7-5-5-5-5-5-5-3-8-8-8-8-8------------------|
     * * * *       * * * *       * * * *       * * * *
e|----------------------------------------------------------------------|
B|----------------------------------------------------------------------|
G|----------------------------------------------------------------------|
D|-------------------------------------------5-5-5-5-5-7p5-----5p3\2p0--|
A|-0-0-0-0-0-0-3-8-8-8-8-8-8-7-5-5-5-5-5-5-3-3-3-3-3-3-----8p7----------|
D|-0-0-0-0-0-0-3-8-8-8-8-8-8-7-5-5-5-5-5-5-3----------------------------|
     * * * *       * * * *       * * * *       * * * *

e|------------------------------------------------------------------|
B|------------------------------------------------------------------|
G|------------------------------------------------------------------|
D|-------------------------------------------------7p0---12p0-------|
A|-----7h8p7p5-----3p0---3p0---3/5-----7h8p7p5------------------7b8-|
D|-0-0---------0-0-----0-----0-----0-0---------0-0-----0------0-----|
   * *         * *     *     *     * *         * *
Tap to rate this tab
 
# A B C D E F G H I J K L M N O P Q R S T U V W X Y Z