Misc Unsigned Bands - Defeatretreat - Pvc Bones tab

C#------------|
G#------------|
E ------------|
B -5-3-8-6----|
F#-5-3-8-6----|
B -5-3-8-6----|


C#-----------------------------------------------------------------------|
G#-----------------------------------------------------------------------|
E -----------------------------------------------------------------------|
B -----------------------------------------------------------------------|
F#----5888---56666665---5888---------------5888---56666665---5888--6-6-6-|
B -555----333--------555----00013333333-555----333--------555----88-8-8--|


C#-----------------------------------------------------------|
G#-----------------------------------------------------------|
E -77777-55555-------------77777-1414141414------------------|
B -xxxxx-xxxxx-22222-33333-xxxxx-xxxxxxxxxx-1010101010-66666-|
F#-55555-33333-22222-33333-55555-1212121212-1010101010-66666-|
B -------------22222-33333------------------1010101010-66666-|

C#----------------------------------|
G#----------------------------------|
E ----------------------------------|
B ----------------------------------|
F#-653-3-----------653-3------------|
B ----6-65335635688---6-65335635653-|

C#---------------------------------------------------|
G#---------------------------------------------------|
E ---------------------------------------------------|
B -00000-22222-55555-xxxxxxxx-00000-22222-1111111111-|
F#-00000-22222-55555-xxxxxxxx-00000-22222-1111111111-|
B -00000-22222-55555-xxxxxxxx-00000-22222-1111111111-|


C#--------------|
G#--------------|
E --------------|
B -1--6--3------|
F#-1--6--3------|
B -1--6--3------|

C#---------------------------------|
G#---------------------------------|
E ---------------------------------|
B -0-0-0-0---------0-0-0-0---------|
F#-0-0-0-0-5-8-8-8-0-0-0-0---------|
B -0-0-0-0---------0-0-0-0-1-3-3-3-|

C#---------------------------------|
G#---------------------------------|
E ---------------------------------|
B -0-0-0-0-------------------------|
F#-0-0-0-0-5-8-8-8---------12------|
B -0-0-0-0---------0-0-0-0---------|

HARMONY

C#-----------------------------------------------------------------|
G#-----------------------------------------------------------------|
E -----------------------------------------------------------------|
B -0-0-0-0-3-7-7-7-0-0-0-0---------0-0-0-0-3-7-7-7---------10------|
F#-0-0-0-0-5-8-8-8-0-0-0-0-3-5-5-5-0-0-0-0-5-8-8-8---------12------|
B -0-0-0-0---------0-0-0-0-1-3-3-3-0-0-0-0---------0-0-0-0---------|



Bass

E -----------------------------------------------------------------|
B -----------------------------------------------------------------|
F#-----------------------------------------------------------------|
B -555555553333333355555555133333335555555533333333555555558-8-8-8-|

E -----------------------------------------------------------------|
B -----------------------------------------------------------------|
F#-55555-33333-------------55555-1212121212------------------------|
B -------------22222-33333------------------1010101010-66666-------|

E -----------------------------------------------|
B -----------------------------------------------|
F#-----------------------------------------------|
B -0-------0-let-ring------0-------0let-ring-----|

E -----------------------------------------------------------|
B -----------------------------------------------------------|
F#-----------------------------------------------------------|
B -00000-22222-55555-xxxxxxxxxxx-00000-22222-111111111111----|

E --------------|
B --------------|
F#--------------|
B -1----6---3---|

E -------------------------------------------------------------|
B -------------------------------------------------------------|
F#---------5-8-8-8-------------------------5-8-8-8---------12--|
B -0-0-0-0---------0-0-0-0-1-3-3-3-0-0-0-0---------0-0-0-0-----|
Tap to rate this tab
 
# A B C D E F G H I J K L M N O P Q R S T U V W X Y Z