Song name
# A B C D E F G H I J K L M N O P Q R S T U V W X Y Z

Misc Unsigned Bands - Iron Bound - Storm The Gates tab

|-----------------------------------------------|
|-----------------------------------------------|
|-----------------------------------------------|
|-----------------------------------------------|
|-5-5-5-5-5-5-5-5-5-5-5-5-5-5-5-5-5-5-5-5-5-5-5-|
|-----------------------------------------------|

|-----------------------------------------------------------------------|
|-----------------------------------------------------------------------|
|-5/7-------7-------7-5/7-------7-------7-5/7-------7-------7-10-10-9-9-|
|-5/7-------7-------7-5/7-------7-------7-5/7-------7-------7-10-10-9-9-|	
|-3/5-x-x-x-5-x-x-x-5-3/5-x-x-x-5-x-x-x-5-3/5-x-x-x-5-x-x-x-5-8--8--7-7-|
|-----------------------------------------------------------------------|

|-----|
|---3-|
|-5-4-|
|-5-5-|
|-3-5-|
|-----|

|-------------------------------------------------------------|
|-------------------------------------------------------------|
|-------------------------------------------------------------|
|-------------------------------------------------------------|
|-------------------------------------------------------------|
|-3p0-0-000-000-3p0-0-000-000-3p0-0-000-000-7p0-5p0-3p0-2p0-3-|

|-------------------------------------------------|
|-------------------------------------------------|
|-------------------------------------------------|
|-------------------------------------------------|
|-------------------------------------------------|
|-3p0-0-0-0-3p0-0-0-0-3p0-0-0-0-7p0-5p0-3p0-2p0-3-|

|-------------------------------------------|
|-------------------------------------------|
|-------------------------------------------|
|-5/7-------7-------7-----------------------|
|-5/7-------7-------7-----------------------|
|-3/5-5-5-5-5-5-5-5-5-5-5-7p0-5p0-3p0-2p0-2-|

|-----------------------------------------------|
|-----------------------------------------------|
|-----------------------------------------------|
|-----------------------------------------2-5-7-|
|-----------------------------------------2-5-7-|
|-0-0h2h3p2-0-0h2h3p2-0-0h2h3p2-0-0h2h3p2-0-3-5-|

|--------17b-17b-14h17p14----14------------------------|
|-17b-14------------------17----17-14h16p14-----14-----|
|-------------------------------------------16b----16b-|
|------------------------------------------------------|
|------------------------------------------------------|
|------------------------------------------------------|

|-17p14p12---------------------------------12h15p12-|
|----------17p14p12----------------------12---------|
|-------------------17p14p12-----------13-----------|
|----------------------------14v-----12-------------|
|----------------------------------13---------------|
|--------------------------------14-----------------|

|----------------------17/-|
|-12-----------------15----|
|---13-------------15------|
|-----12---------16--------|
|-------13-----17----------|
|---------14/18------------|

|-----------------------|---------------|----------------------------------|
|-----------------------|---------------|---------------------------------|
|-----------------------|---------------|-14-12----12----------------------|
|-7-5---5---------------|---------------|-------14----14-12----12----------|
|-----7---7-5---5-------|---------------|-------------------14----14-12-10-|
|-------------7---7-5-3-|-0-0-0-0-0-0-0-|----------------------------------|
Tap to rate this tab
 
# A B C D E F G H I J K L M N O P Q R S T U V W X Y Z