Misc Unsigned Bands - Blisslikethis - Your Hands Have Ways With Words tab

Tuning: Drop D

^ is a natural harmonic
b is a bend
p is a pull off
/ is a slide up
\ is a slide down
This is our second recorded song.

Intro:

Rhythm:
e|-----------------------|-----------------------------|
B|-----------------------|-----------------------------|
G|-----------------------|x3---------------------------| whole thing x2
D|-2/4-4X44-444-444-444--|---4/55555555\4444444--------|
A|-2/4-4X44-444-444-444--|---4/55555555\4444444--------|
D|-2/4-4X44-444-444-444--|---4/55555555\4444444--------|
            *** *** *** 
Lead:
e|--------------------------------|               \
B|----------------10-10-7-7-------|                \   
G|-9/11-11111111------------9-9---|                |
D|-X/X--X-X-X-X-------------------|x3              |
A|-7/9--9-X-9-9-------------------|                |
D|--------------------------------|                |
                                                   |(whole thing twice)
e|----------------------------------------------|  |
B|----------------------------------------------|  | 
G|11/12-12-12-12-12-12-12-12-\11111111111111----|  |
D|X-/X--X--X--X--X--X--X--X--\X-X-X-X-X-X-X-----|  |
A|9-/10-10-10-10-10-10-10-10-\9-9-9-9-9-9-9-----|  /
D|----------------------------------------------| /

after the second time play this:

Rhythm:
e|--------------|
B|--------------|
G|--------------|
D|-2/4-4X44-0~~-|
A|-2/4-4X44-0~~-|
D|-2/4-4X44-0~~-|

Lead:
e|-------------------|
B|-------------------|
G|-9/11-11111111-7~~-|
D|-X/X--X-X-X-X--X---|
A|-7/9--9-X-9-9--5~~-|
D|-------------------|

Verse:

Rhythm:
|-----------------------------------------------|
|-----------------------------------------------|
|---------------------------7777777-------------|
|2-222222-2444444-0-000000--XXXXXXX-------------|
|2-222222-2444444-0-000000--5555555-------------|
|2-222222-2444444-0-000000----------------------|
 * ****** ******* * ******

Lead:
e|----------------------------------|               
B|----------------------------------|       
G|----------------------------------|                
D|-11p0-9p0-7p0-9p0-7p0-6p0---------|              
A|--------------------------9/11----|                
D|----------------------------------|

e|----------------------------------|               
B|----------------------------------|       
G|----------------------------------|                
D|-11p0-9p0-7p0-9p0-7p0-6p0---------|              
A|--------------------------7~------|                
D|----------------------------------|

Rhythm:
|-----------------------------------------------|
|-----------------------------------------------|
|---------------------------777-99999-----------|
|2-222222-2444444-0-000000--XXX-XXXXX-----------|
|2-222222-2444444-0-000000--555-77777-----------|
|2-222222-2444444-0-000000----------------------|
 * ****** ******* * ******
Lead:
e|----------------------------------|               
B|----------------------------------|       
G|----------------------------------|                
D|-11p0-9p0-7p0-9p0-7p0-6p0---------|              
A|--------------------------9/11----|                
D|----------------------------------|

e|----------------------------------|               
B|----------------------------------|       
G|----------------------------------|                
D|-11p0-9p0-7p0-9p0-7p0-6p0---------|              
A|--------------------------7~------|                
D|----------------------------------|

Rhythm:
|-----------------------------------------------|
|-----------------------------------------------|
|---------------------------7777777-------------|
|2-222222-2444444-0-000000--XXXXXXX-------------|
|2-222222-2444444-0-000000--5555555-------------|
|2-222222-2444444-0-000000----------------------|

Lead:
e|----------------------------------|               
B|----------------------------------|       
G|----------------------------------|                
D|-11p0-9p0-7p0-9p0-7p0-6p0---------|              
A|--------------------------9/11----|                
D|----------------------------------|

e|----------------------------------|               
B|----------------------------------|       
G|----------------------------------|                
D|-11p0-9p0-7p0-9p0-7p0-6p0---------|              
A|--------------------------7~------|                
D|----------------------------------|

Rhythm:
|-----------------------------------------------|
|-----------------------------------------------|
|---------------------------777-99999~~---------|
|2-222222-2444444-0-000000--XXX-XXXXX-----------|
|2-222222-2444444-0-000000--555-77777~~---------|
|2-222222-2444444-0-000000----------------------|

Lead:
e|----------------------------------|               
B|----------------------------------|       
G|----------------------------------|                
D|-11p0-9p0-7p0-9p0-7p0-6p0---------|              
A|--------------------------9/11----|                
D|----------------------------------|

e|----------------------------------|               
B|----------------------------------|       
G|----------------------------------|                
D|-11p0-9p0-7p0-9p0-7p0-6p0---------|              
A|--------------------------7~------|                
D|----------------------------------|

and as the last rhythm note rings, the lead continues with:
e|----------------------------------|               
B|----------------------------------|       
G|----------------------------------|                
D|-11p0-9p0-7p0-9p0-7p0-6p0---------|              
A|--------------------------9/11----|                
D|----------------------------------|

Then the rhythm comes back with:

|-------------|
|-------------|
|-999~~///----|
|-XXX--///----|
|-777~~///----|
|-------------|

Lead ends with this:
e|----------------------------------|               
B|----------------------------------|       
G|----------------------------------|                
D|-11p0-9p0-7p0-9p0-7p0-6p0---------|              
A|--------------------------7~~-----|                
D|----------------------------------|

Alright. its late some im just going to tab out the rest of the lead.

Chorus:
Alright the "E" stands for "11" on the fret board. This part plays twice.
Lead:
e|----------------------------------------------------------------------|
B|----------------------------------------------------------------------|
G|----------------------------------------------------------------------|
D|-0000000022222222-2222222244444444-6666666677777777-EEEEEEEE99999999--|
A|-0000000000000000-2222222222222222-4444444444444444-7777777777777777--|
D|-0000000000000000-2222222222222222-4444444444444444-7777777777777777--|

after that twice, the chorus ends with:

|-----------------|
|-----------------|
|-----------------|
|-76-7-9-11~------|
|-44-4-7-7~-------|
|-44-4-7-7~-------|

the drummer counts back into the verse. 
the second half of the verse (where the rhythm isnt palm muting) is played
here, along with the holds and slide into the breakdown:

|--------------------------------------------------------|
|--------------------------------------------------------|
|--------------------------------------------------------|
|-00---00--5~--00---00--5---00---00--5~--00---00-5-5~----|
|-00---00--9~--00---00-9-9--00---00--9~--00---00--9------|
|-00---00------00---00------00---00------00---00---------|
  **   **      **   **      **   **      **   **

|-------------------------------------------------------------|
|-------------------------------------------------------------|
|-------------------------------------------------------------|
|-00---00--7~--00---00---7----00---00--7~--00---00-7--7~-0~~--|
|-00---00--11~-00---00-11-11--00---00--11~-00---00--11---0~~--|
|-00---00------00---00--------00---00------00---00-------0~~--|

Then back into the chorus, along with the chorus ender. after the chorus
there is a drum fill into the bridge.
Lead plays:

|----------------------------------------------------------------------------------|
|----------------------------------------------------------------------------------|
|----------------------------------------------------------------------------------|
|-11--11--11-11-11-9-99-9999-6-6-666-7-77-7777---11--11--11-11-11-9-99-9999-7^-4~--|
|----------------------------------------------------------------------------------|
|----------------------------------------------------------------------------------|

|--------------------------------16~--17~-------------------|
|---------------------14b--12~------------------------------|
|-18b--16~-13--14-------------------------------------------|
|-----------------------------------------------------------|
|-----------------------------------------------------------|
|-----------------------------------------------------------|

the chorus part for the lead plays at the end while the solo is going. 
the chorus is played 4 times instead of the regular 2.

the ending is played like this:

|-------------------------------------------------|
|-------------------------------------------------|
|-------------------------------------------------|
|-76-7-9-11~11111111111111---76-7-11-9~9999999----|
|-44-4-7--7~7-7-7-7-7-7-7----44-4-7--7~7777777----|
|-44-4-7--7~7-7-7-7-7-7-7----44-4-7--7~7777777----|

|-------------------------------------------|
|-------------------------------------------|
|-------------------------------------------|
|-76-7-9-11~11111111111111---76-7-9--4~~----|
|-44-4-7--7~7-7-7-7-7-7-7----44-4-7--2~~----|
|-44-4-7--7~7-7-7-7-7-7-7----44-4-7--2~~----|

thurrrr ya go. its our second recorded song. 
Tap to rate this tab
 
# A B C D E F G H I J K L M N O P Q R S T U V W X Y Z