Song name
# A B C D E F G H I J K L M N O P Q R S T U V W X Y Z

Misc Unsigned Bands - Indische - Waterlelies tab

De efteling  indische waterlelies

e- -7 ----5----------------7---9-----10--------------------------------------|
b------------5--------6-------------------10---------------------------------|
g------------------5-----------------------------9---------------------------|
d--------------------------------------------------------10------------------|
a----------------------------------------------------------------------------|
E----------------------------------------------------------------------------|

e----8--6-----------------------------------------------------------------------|
b----------6---8---10-----------------------------------------------------------|
g-------------------------10----------------------------------------------------|
d-------------------------------10-----9----------------------------------------|
a-------------------------------------------------------------------------------|
E-------------------------------------------------------------------------------|
Tap to rate this tab
 
# A B C D E F G H I J K L M N O P Q R S T U V W X Y Z