Song name
# A B C D E F G H I J K L M N O P Q R S T U V W X Y Z

Misc Unsigned Bands - Takeback - Self Centered tab

h=hammer-on  p=pull-off

             Intro
e--------------------------------|
b--------------------------------|
g-----------0------------0-------|
d---0-----2------0-----2---------|
a--2--3-3------2--3-3------------|
e-3-----------3------------------|
0              repeat 2X

0            solo-1
e-----------5---10--12-------------------10h12p10-------|
b---------5---8----7-----------10h12--------------------|
g-----6-7---------------11h12---------------------------|
d-9-7---------------------------------------------------|
a-------------------------------------------------------|
e-------------------------------------------------------|

Repeat intro till end (about 24 times)
Tap to rate this tab
 
# A B C D E F G H I J K L M N O P Q R S T U V W X Y Z