Song name
# A B C D E F G H I J K L M N O P Q R S T U V W X Y Z

Misc Unsigned Bands - Bird By Bird - Delirious chords

Highlighted       Show chord diagrams
-------------------------------------------------------------------------------
			DELIRIOUS - Bird by Bird
-------------------------------------------------------------------------------
Chords by: Daniel Love (Vash_15)
Email: vash_i5@yahoo.com

Tuning: Standard (EADGBe)

E - 022100
F#m - 244222
A - x02220
B - x24442

Main Riff
e|--------------------------------------------------------|
B|------99------99---9/10-10--10--10-10-777-99-77---------|
G|-----------66---66--------66--66------------------------|
D|----99--99----------------------------------------------|
A|-77-----------------------------------------------------|
E|--------------------------------------------------------|


         E               F#m A B
I get delirious 'round you
         E               F#m A B
I get delirious 'round you

E             F#m       A               B
every night I take you, take you to the noise
    E                 F#m         A                B
you love me with your eyes as you bounce among the boys
  E                F#m      A                B
I can't control my urges, I can't control my brain
E               F#m        A                 B
every night you take me, I ride your hurricane

         E           F#m A B
I get delirious fo' sho'
         E           F#m A B
I get delirious like Poe
         E             F#m A B
I get delirious 'round you
         E             F#m A B
I get delirious 'round you

(riff)

  E                  F#m          A              B
I bet you're in some bedroom just waking in your skirt
    E                      F#m               A                  B
you groan, you soothe with gel caps, now for me they just don't work
    E              F#m                     A               B
you rise, another says goodbye, that's the scene inside my head
      E             F#m                   A                   B
don't blame me as I shriek and beg you to freak with me instead

         E             F#m A B
I get delirious like Prince
         E                   F#m A B
I get delirious and wail, fail!
         E             F#m A B
I get delirious 'round you
         E             F#m A B
I get delirious 'round you

(riff)
Tap to rate this tab
 
# A B C D E F G H I J K L M N O P Q R S T U V W X Y Z