Song name
# A B C D E F G H I J K L M N O P Q R S T U V W X Y Z

Misc Unsigned Bands - Christie Dupree - Apologies tab

Cadd9  G A7sus4 Em7
e|-3-|-3-|-3-|-3-|
b|-3-|-3-|-3-|-3-|
g|-0-|-0-|-2-|-0-|
d|-2-|-0-|-2-|-2-|
a|-3-|-2-|-0-|-2-|
E|-0-|-3-|-X-|-X-|

Basically hold G when picking, then Cadd9, then G, then Cadd9
These are the strings/notes, but you only really need to see where the placement 
is, as you will be holding G and Cadd9 anyway :) make your life easier. 

intro: play this twice
e |----------------------------------------------------------------|
B |------------3--------------------------3------------------------|
G |-----0-----------0----0----------0--------------0------0--------|
D |---------0---------2-----------------0--------------2-----------|
A |--2---------------------------2---------------------------------|
E |----------------------------------------------------------------|

e |----------------------------------------------------------------|
B |------------3---------------------------3-----------------------|
G |-----0----------0-----0----------0--------------0--------0------|
D |---------2---------2----------------2---------------2-----------|
A |--3---------------------------3---------------------------------|
E |----------------------------------------------------------------|

*Strumming is super easy just listen to the song :)*

           Cadd9  
And it's a sad, sad story

When you also want apologies
    G
And show them to the door
                                      Cadd9
But they always come back through the window
                      G
Come back through the window

         Cadd9
And it's such a wasted time

But I drop you a line
      G
And I put it in a jar where I know
                  Cadd9
That you'll never see it
                   G
Where you'll never see it

         A7sus4               Em7
And it's taken me a long time this time
   A7sus4                         Em7
To find that we're walking such a fine line
            G             Cadd9
Between the days that are over
        G             Cadd9
And the sun's sinking lower
     G                     Cadd9
On a day like today or the one we're living right now

The rest of the song goes by the same pattern.

And it's a sad, sad story
When you know you should be sorry
But it doesn't change the fact
That your heart is cold within you
And you can show them to the door
But they always come back through the window
Come back through the window

And it's taken me a long time this time
To find that we're walking such a fine line
Between the days that are over
And the sun's sinking lower
On a day like today or the one we're living right now
Right now

Days that are over
And the sun's sinking lower
On a day like today or the one we're living right now

[play intro here again]
Oooohh oohh oh oh oh oh

And it's taken me a long time this time
To find that we're walking such a fine line
Between the days that are over
And the sun's sinking lower
On a day like today or the one we're living right now
Right now

Days that are over
And the sun's sinking lower
On a day like today or the one we're living right now

Tap to rate this tab
 
# A B C D E F G H I J K L M N O P Q R S T U V W X Y Z