Song name
# A B C D E F G H I J K L M N O P Q R S T U V W X Y Z

Misc Unsigned Bands - Bert Weedon - Big Note Blues tab

-------------------------------------------------------------------------------
			     Big Note Blues - Bert Weedon
-------------------------------------------------------------------------------
Tabbed by: ShaunDanz
Email: shaundanz@hotmail.com

Tuning:EADGBe

I first heard this song on fallout new vegas, called lazy day blues. The actual song is
called Big Note Blues. This song was really catchy so i learnt it by ear and thought i
would tab it for you new vegas fans :)

I recommend you listen to the song while looking at this tab.

Guitar 2 plays this all the way through the song:

Guitar 2
e|-------------------------------------------------------------------------------------|
B|-------------------------------------------------------------------------------------|
G|-------------------------------------------------------------------------------------|
D|-------------------------------------------------------------------------------------|
A|-----------2--3~--2--3----------------2---3~--3--2-2-3-------------- x2   -----------|
E|--0----4-------------------0----4----------------------------------------------------|

e|---------------------------------------------------|
B|---------------------------------------------------|
G|---------------------------------------------------|
D|----------2---3~--2---3----------2---3~--3--2-2-3--|
A|--0---4------------------0---4---------------------|
E|---------------------------------------------------|

e|------------------------------------------------------|
B|------------------------------------------------------|
G|------------------------------------------------------|
D|------------------------------------------------------|
A|----------2---3~---2--3-----------2---3~--3--2--2--3--|
E|--0---4--------------------0---4----------------------|

e|---------------------------------------------------------------------------------------|
B|---------------------------------------------------------------------------------------|
G|---------------------------------------------------------------------------------------|
D|------1---4-5--4--5-------------2---3~---2--3------------------------------------------|
A|--2--------------------0----4----------------------------------------------------------|
E|---------------------------------------------------------------------------------------|

e|-------------------------------------------------------|
B|-------------------------------------------------------|
G|-------------------------------------------------------|
D|-------------------------------------------------------|
A|------------2---3~---2--3-----------2---3~--3--2-2--3--|
E|--0----4--------------------0---4----------------------|
Guitar 1 comes in after guitar 2 plays twice

Guitar 1
e|--5-5/-7-----4--9---7--4-------5-5-5/-7---4--11-9--7--|
B|--7-7/-9-----5--10--9--5-------7-7-7/-9---5--12-10-9--|
G|------------------------------------------------------|
D|------------------------------------------------------|
A|------------------------------------------------------|
E|------------------------------------------------------|

e|----------3~-3~-3~------5---3-----------4-------11--9--7--|
B|---5~-5~------------5----------5------5----5----12--10-9--|
G|----------------------------------------------------------|
D|----------------------------------------------------------|
A|----------------------------------------------------------|
E|----------------------------------------------------------|

e|--11-11/-14--11-11--9-9/-12----3/4--3-3/4--|
B|-------------------------------------------|
G|-------------------------------------------|
D|-------------------------------------------|
A|-------------------------------------------|
E|-------------------------------------------|

Guitar 1 then doesn't play until Guitar 2 plays its part once more, after guitar 1 has 
finished its part above.

Guitar 1
e|-7--9------------7-9-10-9-7---7------7--9---------|
B|--------9--5----------------9--------------9---5--|
G|--------------------------------------------------|
D|--------------------------------------------------|
A|--------------------------------------------------|
E|--------------------------------------------------|

e|--7--9--7-----7--9-9/12---------7--5-----7-5---7-5----4--7--7\0------------------------|
B|-----------9-----------------5---------5-----5-----------------------------------------|
G|---------------------------------------------------------------------------------------|
D|---------------------------------------------------------------------------------------|
A|---------------------------------------------------------------------------------------|
E|---------------------------------------------------------------------------------------|

e|--3--4/7--------12/14--14-14-14-14-14-14-14--15-15-15-15--14-12-14--|
B|--------------------------------------------------------------------|
G|--------------------------------------------------------------------|
D|--------------------------------------------------------------------|
A|--------------------------------------------------------------------|
E|--------------------------------------------------------------------|

e|--12-14-15-14-12----12------------------------------------|
B|-----------------14------12-12-12-12-12-12-12-12-12-12/0--|
G|----------------------------------------------------------|
D|----------------------------------------------------------|
A|----------------------------------------------------------|
E|----------------------------------------------------------|


************************************

| /   slide up
| \   slide down
| ~   vibrato

************************************
Tap to rate this tab
 
# A B C D E F G H I J K L M N O P Q R S T U V W X Y Z