Misc Unsigned Bands - Stevie And The Moon - Pictures tab

Pictures (Album Version)

Written by: Steve McCrorie (Stevie and the Moon)

Love the wee riff at the start of this song!
The chords used are written out at the bottom
Apologies if any of the lyrics are wrong

Standard Tuning (EADGBE)

h - hammer on
Nh- Natural Harmonic
x - mute string

Intro:
                                                                      Nh Nh
e|-------------------------------------------------------------------------|
B|---------7---------------------------------------3-------------------5---|
G|-----0------0----7---0----------0-----0----0--------0---------0--------5-|
D|---5---5---------------5---5h7----5h7--------2------------------4--------|
A|-7------------7----------7---------------3-----3-------3-3/5------3------|
E|-------------------------------------------------------------------------|

                                                                     Nh Nh
e|-------------------------------------------------------------------------|
B|-----------7----------0-----------------------------3---------------5----|
G|-------0------0---7---0----------0------0-----0-------0------0---------5-|
D|-----5---5--------------5---5h7----5h7----------2--------------4---------|
A|-5h7------------7---------7---------------6/3-----3-----3/5------3-------|
E|-------------------------------------------------------------------------|


Verse: (palm muted strumming)

e|-----------------|-----------------|-----------------|-----------------|
B|-----------------|-----------------|-----------------|-----------------|
G|-0-0-0-0-0-0-0-0-|-0-0-0-0-0-0-0-0-|-0-0-0-0-0-0-0-0-|-0-0-0-0-0-0-0-0-|
D|-5-5-5-5-5-5-5-5-|-5-5-5-5-5-5-5-5-|-2-2-2-2-2-2-2-2-|-4-4-4-4-4-4-4-4-|
A|-7-7-7-7-7-7-7-7-|-7-7-7-7-7-7-7-7-|-3-3-3-3-3-3-3-3-|-5-5-5-5-5-5-5-5-|
E|-----------------|-----------------|-----------------|-----------------|
      (I know       how you're feeling did the clocks stop last night?)
x4


Pre chorus: 

    e|-0-x-----0-|-0-x-----0-|-0-x-----0-|-0--0--x--0-|
    B|-3-x-----3-|-5-x-----5-|-8-x-----8-|-8--8--x--8-|
    G|-0-x-----0-|-0-x-----0-|-0-x-----0-|-0--0--x--0-|
    D|-2-x-----2-|-4-x-----4-|-5-x-----5-|-5--5--x--5-|
    A|-3-x-----3-|-5-x-----5-|-7-x-----7-|-7--7--x--7-|
    E|---x-------|---x-------|---x-------|------------|
(and I neeeeeeeeeeeed      to know      to know to know) 
 
x2


Chorus: (open strumming)
  
         Em7                             
Wear the same clothes 
                   Cadd9
and keep our happy faces on                    
                    G                      =>  on the G chords in the chorus
and let the angelic voices                     he plays 
   D         Bm                                e-------------------------| 
disguise our demons                            B-------------------------|
    Em7                                        G-------------------------|
And watching the same soaps                    D-----0-----0-----0-----0-|
                Cadd9                          A-0h2---0h2---0h2---0h2---|
They're keeping us from talking                E-------------------------|
                G
They're helping us and locking
    D       Bm
The child inside
        B          Bsus4
Who who wants, who wants to get out

Intro

Verse 2

Pre Chorus

Chorus

Bridge:

e|-3--x-3-3-3--x-3-3-3--x-3-3-2--2------3-|
B|-3--x-3-3-3--x-3-3-3--x-3-3-3---3-------|
G|-0--x-2-0-0--x-2-0-0--x-2-0-2-----2-----|
D|-0--x-0-0-2--x-0-0-0--x-0-0-0-------0---|
A|-2--x-----3--x-----2--x-----------------|
E|-3--x--------x-----3--x-----------------|
      (Get out  get out  get out)

e|-3--x-3-3-3--x-3-3-3--x-3-3-2--2------3-|
B|-3--x-3-3-3--x-3-3-3--x-3-3-3---3-----3-|
G|-0--x-2-0-0--x-2-0-0--x-2-0-2-----2-----|
D|-2--x-0-0-2--x-0-0-0--x-0-0-0-------0---|
A|-2--x-----3--x-----2--x-----------------|
E`----x--------x-----3--x-----------------|
      (Get out  get out  get out)


Outro Verse: (Palm muted)

e|-3--x-------------3--x------------3--x------------2-x-2-----3-|
B|-3--x--3--3--3----3--x--3--3--3---3--x--3--3--3---3-x---3-----|
G|-0--x--2--2---2---0--x--2--2---2--0--x--2--2---2--2-x----2----|
D|-0--x--0--0----0--2--x--0--0----0-0--x--0--0----0-0-x---------|
A|-2--x-------------3--x------------2--x--------------x---------|
E|-3--x----------------x------------3--x--------------x---------|
  (Ha ha you better let love through now Oh no you better not do that now)

e|-3--x-------------3--x------------3--x------------2-----------|
B|-3--x--3--3--3----3--x--3--3--3---3--x--3--3--3---3-----------|
G|-0--x--2--2---2---0--x--2--2---2--0--x--2--2---2--2-----------|
D|-2--x--0--0----0--2--x--0--0----0-0--x--0--0----0-0-----------|
A|-2--x-------------3--x------------2--x------------------------|
E|----x----------------x------------3--x------------------------|
 (Ha ha you better let love through now Oh no you better not)

(Open Strumming)

G                  Cadd9
  Ha ha you better let love through now
G                  D
  Oh no you better not do that now
Em7                Cadd9
  Ha ha you better let love through now
G                  D
  Oh no you better not 


 e|------------------0-0--|
 B|--------------8-8-3-3--|          
 G|-------0-0-0--0-0-0-0--|             
 D|-----5---5-5--5-5-2-2--|
 A|-5h7-----7-7--7-7-3-3--|
 E|-----------------------|
You better           not

x4


Chords Used:

  Em7   Cadd9  Bm   B   Bsus4
e--3------3-----2---2-----2--|
B--3------3-----3---4-----5--|
G--0------0-----4---4-----4--|
D--2------2-----4---4-----4--|
A--2------3-----x---x-----x--|
E--0------x-----x---x-----x--|

Comments and advice welcome!
Tap to rate this tab
 
# A B C D E F G H I J K L M N O P Q R S T U V W X Y Z