Song name
# A B C D E F G H I J K L M N O P Q R S T U V W X Y Z

Misc Unsigned Bands - Four Litre Friday - Slut tab

                 --------------------------------------------------------------
			                               Slut - Four Litre Friday
                 --------------------------------------------------------------

Tabbed by: FEAR3445
Email: bcrvelin@hotmail.com	

Tuning: Standard

Please note that the only part where 2 guitars can be clearly heard are 
in the intro and at the end of the first part in each chorus.

Also note, if you are a new 4LF fan this is one of there original stuff 
back when they were a punk band and had a different line up.

 Legend:
 . = Palm Mute
 x = Mute Note

Intro: 
Guitar 1
e|-------------------------------------------------------------|
B|-------------------------------------------------------------|
G|------------------------------------------------777777777777-|
D|----7775544554455---555442-245420--555440022002-777777777777-| x2
A|-555--------------------------------------------555555555555-|
E|-----------------555-------------33--------------------------|
                                                  .. .. . . . 
Guitar 2 
e|-------------------------------------------------------------|
B|-------------------------------------------------------------|
G|-77--------------44---------------------------------44442222-|
D|-77--------------44--------------55----------55-----44442222-| 2nd time round            
A|-55--------------22--------------55----------55-----22220000-| only
E|---------------------------------33----------33--------------|

Guitar 1+2
e|--------------------------------------------------------------------------|
B|--------------------------------------------------------------------------|
G|-7777777777777777-444444444444--------------------------------------------|
D|-7777777777777777-444444444444-7777555555555555-7777555555555555-99997777-| x2 
A|-5555555555555555-222222222222-7777555555555555-7777555555555555-99997777-|
E|-------------------------------5555333333333333-5555333333333333-77775555-|

Verse 1:
e|--------------------------------------------------------------------|
B|--------------------------------------------------------------------|
G|7777777777777777-4444444444444444-----------------------------------|
D|7777777777777777-4444444444444444-5555555555555555-7777777777777777-| x2
A|5555555555555555-2222222222222222-5555555555555555-7777777777777777-|
E|----------------------------------3333333333333333-5555555555555555-|
  ................ ................ ................ ................
 So get out of my way, Im not gonna hear a word you say,
 You bitch if I don't talk to you, and i'll never listen to a thing you say,
 And when you speak, its like a nail to my forehead, (something something) If I want.


(The most epic part of the song) Chorus:     
e|-----------------------------------------|
B|-----------------------------------------|
G|-4~----7777777777777777------------------|
D|-4~-5~-7777777777777777-7777777777777777-| x2
A|-2~-5~-5555555555555555-7777777777777777-|
E|----3~------------------5555555555555555-|
 Don't procrastinate! I am the best I will succeed yeah! 
 Don't procrastinate! I am the best I will succeed yeah!

 *note* that in the first part of the chorus (right above this)
  one guitar palm mutes the A chord (the bottom 577) and another
  guitar (or dubbed guitar) plays the A chord not palm muted
  as far as I can hear

e|---------------------------------------------------------------------|
B|---------------------------------------------------------------------|
G|-7777777777777777-7777777777777777-----------------------------------|
D|-7777777777777777-7777777777777777-7777777777777777-5555555555555555-| x2
A|-5555555555555555-5555555555555555-7777777777777777-5555555555555555-|
E|-----------------------------------5555555555555555-3333333333333333-|
  And I see you, hey hey, hey hey, hey yeah! 
  It's gonna be a lovely day now you're gone, and everything you,
  Say hey, hey hey, hey yeah, it leaves me broken and out of touch


Back to the intro:
e|-------------------------------------------------------------|
B|-------------------------------------------------------------|
G|------------------------------------------------777777777777-|
D|----7775544554455---555442-245420--555440022002-777777777777-| 
A|-555--------------------------------------------555555555555-|
E|-----------------555-------------33--------------------------|
         1! 2! 3! 4!                              .. .. . . . 

Verse 2:
e|---------------------------------------------------------------------|
B|---------------------------------------------------------------------|
G|-7777777777777777-4444444444444444-----------------------------------|
D|-7777777777777777-4444444444444444-5555555555555555-7777777777777777-| x2
A|-5555555555555555-2222222222222222-5555555555555555-7777777777777777-|
E|-----------------------------------3333333333333333-5555555555555555-|
   ................ ................ ................ ................
  I swear that you must weigh, a hundred fucking kilos,
  And you still bitch if I don't talk to you, and i'll never listen to a thing you say,
  I've lost the (plot/blood?), waiting for the class to end
  And you still think that I'm your friend, now this conception is a mess.


(time for the epic part again!) Chorus:     
e|-----------------------------------------|
B|-----------------------------------------|
G|-4~----7777777777777777------------------|
D|-4~-5~-7777777777777777-7777777777777777-| x2
A|-2~-5~-5555555555555555-7777777777777777-|
E|----3~------------------5555555555555555-|
 Don't procrastinate! I am the best I will succeed yeah! 
 Don't procrastinate! I am the best I will succeed yeah!

e|---------------------------------------------------------------------|
B|---------------------------------------------------------------------|
G|-7777777777777777-7777777777777777-----------------------------------|
D|-7777777777777777-7777777777777777-7777777777777777-5555555555555555-| x2
A|-5555555555555555-5555555555555555-7777777777777777-5555555555555555-|
E|-----------------------------------5555555555555555-3333333333333333-|
  And I see you, hey hey, hey hey, hey yeah! 
  It's gonna be a lovely day now you're gone, and everything you,
  Say hey, hey hey, hey yeah, it leaves me broken and out of touch

*note* Then this happens once more at first listen I thought it was just the same 
BUT it isnt it's got some funky sliding thats really hard to hear but
it's definitely there.
e|---------------------------------------------------------------------------------------|
B|---------------------------------------------------------------------------------------|
G|-77777777-7/9-99-9/11-1111-77777777-7/9-99-9/11-1111-----------------------------------|
D|-77777777-x-x-xx-x-x--x-x--77777777-x-x-xx-x-x--x-x--7777777777777777-5555555555555555-| x2
A|-55555555-5/7-77-7/9--9-9--55555555-5/7-77-7/9--9-9--7777777777777777-5555555555555555-|
E|-----------------------------------------------------5555555555555555-3333333333333333-|
  And I see you, hey hey, hey hey, hey yeah! 
  It's gonna be a lovely day now you're gone, and everything you,
  Say hey, hey hey, hey yeah, it leaves me broken and out of touch

And end on:
e|------|
B|------|
G|-7~~~-|
D|-7~~~-|
A|-5~~~-|
E|------|


And finished.

Any comments, improvements and what not, you can post that in the comment section,
or if you REALLY need to, feel free to email me with whatever, and im always up 
for taking requests

LACHLAN BODY IS GOD!!!

Cheers
Tap to rate this tab
 
# A B C D E F G H I J K L M N O P Q R S T U V W X Y Z