Song name
# A B C D E F G H I J K L M N O P Q R S T U V W X Y Z

Misc Unsigned Bands - Own Personal Enemy - Rip Me tab

rip me
drop c


intro

d-----------------------------|----------------------|
a-----------------------------|----------------------|
f-----------------------------|----------------------|
c--9--9------5-5---5-5--------|-0--0---2-2-3-2-0-----|
g--9--9------5-5---5-5--------|-0--0---2-2-3-2-0-----|
c--9--9------5-5---5-5--------|-0--0---2-2-3-2-0-----|

------------------------------|----------------------|
------------------------------|-7--7-7---------------|
---9--9------5-5---5-5--------|-5--5-5--5-5-5-5-4----|
---9--9------5-5---5-5--------|-5--5-5--5-5-5-5-4----|
---9--9------5-5---5-5--------|-5--5-5--5-5-5-5-4----|

------------------------------|----------------------|
------------------------------|----------------------|
------------------------------|----------------------|
2--2--2--2--2--2--2--2--------|-5--4--5--4--4--------|
2--2--2--2--2--2--2--2--------|-4--4--4--7--4--------|
2--2--2--2--2--2--2--2--------|-4--4--4--4--4--------|
Tap to rate this tab
 
# A B C D E F G H I J K L M N O P Q R S T U V W X Y Z