Song name
# A B C D E F G H I J K L M N O P Q R S T U V W X Y Z

Misc Unsigned Bands - A Bloodbath In Boston - Pick Your Poison tab

I just copied the ASCII file from Guitar Pro so some stuff might look weird but here it 
is, you can figure out any harmonies for yourself.


                  A Bloodbath In Boston - Pick Your Poison


     Q    Q    Q    Q
E||----------------------|
B||----------------------|
G||----------------------|
D||----------------------|
A||----------------------|
E||----------------------|
A||----------------------|


       PM PM PM PM PM PM PM PM PM
  Q    S  S  E  S  S  E  S  S  E
----------------------------------|
----------------------------------|
----------------------------------|
----------------------------------|
----------------------------------|
--6-------------------------------|
--4----1--1--1--1--1--1--1--1--1--|


  PM PM PM PM PM PM
  S  S  E  S  S  E  E  E  E  E
--------------------------------|
--------------------------------|
--------------------------------|
--------------------------------|
--------------------------------|
--------------------------------|
--1--1--1--1--1--1--4--1--3--1--|


       PM   PM   PM
  Q    Q    Q    Q
----------------------|
----------------------|
----------------------|
--5-------------------|
--3-------------------|
--3----3----3----3----|
-------4----4----4----|


  PM   PM
  Q    Q    E  E  Q
-----------------------|
-----------------------|
-----------------------|
-----------------------|
-----------------------|
--3----3---------------|
--4----4----3--4--3----|


       PM PM PM PM PM PM PM PM PM
  Q    S  S  E  S  S  E  S  S  E
----------------------------------|
----------------------------------|
----------------------------------|
----------------------------------|
----------------------------------|
--6-------------------------------|
--4----1--1--1--1--1--1--1--1--1--|


  PM PM PM PM PM PM
  S  S  E  S  S  E  E  E  E  E
--------------------------------|
--------------------------------|
--------------------------------|
--------------------------------|
--------------------------------|
--------------------------------|
--1--1--1--1--1--1--4--1--3--1--|


       PM   PM   PM
  Q    Q    Q    Q
----------------------|
----------------------|
----------------------|
--5-------------------|
--3-------------------|
--3----3----3----3----|
-------4----4----4----|


  PM   PM
  Q    Q    E  E  E  E
------------------------|
------------------------|
------------------------|
------------------------|
------------3-----------|
--3----3----3-----------|
--4----4----3-----------|


       PM PM PM PM PM PM PM PM PM
  Q    S  S  E  S  S  E  S  S  E
----------------------------------|
----------------------------------|
----------------------------------|
----------------------------------|
----------------------------------|
--6-------------------------------|
--4----1--1--1--1--1--1--1--1--1--|


  PM PM PM PM PM PM
  S  S  E  S  S  E  E  E  E  E
--------------------------------|
--------------------------------|
--------------------------------|
--------------------------------|
--------------------------------|
--------------------------------|
--1--1--1--1--1--1--4--1--3--1--|


       PM PM PM PM PM PM PM PM PM
  Q    S  S  E  S  S  E  S  S  E
----------------------------------|
----------------------------------|
----------------------------------|
--5-------------------------------|
--3-------------------------------|
--3-------------------------------|
-------4--4--4--4--4--4--4--4--4--|


  PM PM PM PM PM PM  T           T
                     |---3---|   |---3---|
  S  S  E  S  S  E   E   E   E   E   E   E
--------------------------------------------|
--------------------------------------------|
--------------------------------------------|
--------------------------------------------|
--------------------------------------------|
--------------------13p--6h--9--12p--5h--8--|
--4--4--4--4--4--4--------------------------|


       PM PM PM PM PM PM PM PM PM
  Q    S  S  E  S  S  E  S  S  E
----------------------------------|
----------------------------------|
----------------------------------|
----------------------------------|
----------------------------------|
--6-------------------------------|
--4----1--1--1--1--1--1--1--1--1--|


  PM PM PM PM PM PM
  S  S  E  S  S  E  E  E  E  E
--------------------------------|
--------------------------------|
--------------------------------|
--------------------------------|
--------------------------------|
--------------------------------|
--1--1--1--1--1--1--4--1--3--1--|


       PM PM PM PM PM PM PM PM PM
  Q    S  S  E  S  S  E  S  S  E
----------------------------------|
----------------------------------|
----------------------------------|
--5-------------------------------|
--3-------------------------------|
--3-------------------------------|
-------4--4--4--4--4--4--4--4--4--|


  PM PM PM PM PM PM
  S  S  E  S  S  E  E  E  Q
-------------------------------|
-------------------------------|
-------------------------------|
-------------------------------|
-------------------------------|
-------------------------------|
--4--4--4--4--4--4--3--4--3----|


       PM PM PM PM PM PM PM PM PM
  Q    S  S  E  S  S  E  S  S  E
----------------------------------|
----------------------------------|
----------------------------------|
----------------------------------|
----------------------------------|
--6-------------------------------|
--4----1--1--1--1--1--1--1--1--1--|


  PM PM PM PM PM PM
  S  S  E  S  S  E  E  E  E  E
--------------------------------|
--------------------------------|
--------------------------------|
--------------------------------|
--------------------------------|
--------------------------------|
--1--1--1--1--1--1--4--1--3--1--|


       PM PM PM PM PM PM PM PM PM
  Q    S  S  E  S  S  E  S  S  E
----------------------------------|
----------------------------------|
----------------------------------|
--5-------------------------------|
--3-------------------------------|
--3-------------------------------|
-------4--4--4--4--4--4--4--4--4--|


  PM PM PM PM PM PM  T           T
                     |---3---|   |---3---|
  S  S  E  S  S  E   E   E   E   E   E   E
--------------------------------------------|
--------------------------------------------|
--------------------------------------------|
--------------------------------------------|
--------------------------------------------|
--------------------13p--6h--9--12p--5h--8--|
--4--4--4--4--4--4--------------------------|


       PM PM PM PM PM PM PM PM PM
  Q    S  S  E  S  S  E  S  S  E
----------------------------------|
----------------------------------|
----------------------------------|
----------------------------------|
----------------------------------|
--6-------------------------------|
--4----1--1--1--1--1--1--1--1--1--|


  PM PM PM PM PM PM
  S  S  E  S  S  E  E  E  E  E
--------------------------------|
--------------------------------|
--------------------------------|
--------------------------------|
--------------------------------|
--------------------------------|
--1--1--1--1--1--1--4--1--3--1--|


       PM PM PM PM PM PM PM PM PM
  Q    S  S  E  S  S  E  S  S  E
----------------------------------|
----------------------------------|
----------------------------------|
--5-------------------------------|
--3-------------------------------|
--3-------------------------------|
-------4--4--4--4--4--4--4--4--4--|


  PM PM PM PM PM PM
  S  S  E  S  S  E  E  E  Q
-------------------------------|
-------------------------------|
-------------------------------|
-------------------------------|
-------------------------------|
-------------------------------|
--4--4--4--4--4--4--3--4--3----|


  S S S S S S S S S S S S S S S S
----------------------------------|
----------------------------------|
----------------------------------|
----------------------------------|
----------------------------------|
----------------------------------|
--0-0-0-0-0-0-0-0-0-0-0-0-1-1-1-1-|


  S S S S S S S S S S S S S S S S
----------------------------------|
----------------------------------|
----------------------------------|
----------------------------------|
----------------------------------|
--3-3-3-3-3-3-3-3-----------------|
------------------0-0-0-0-0-0-0-0-|


  S S S S S S S S S S S S S S S S
----------------------------------|
----------------------------------|
----------------------------------|
----------------------------------|
----------------------------------|
----------------------------------|
--0-0-0-0-4-4-4-4-3-3-3-3-3-3-3-3-|


  S S S S S S S S S S S S S S S S
----------------------------------|
----------------------------------|
----------------------------------|
----------------------------------|
----------------------------------|
--6-6-6-6-----------------5-5-5-5-|
----------4-4-4-4-3-3-3-3---------|


  S S S S S S S S S S S S S S S S
----------------------------------|
----------------------------------|
----------------------------------|
----------------------------------|
----------------------------------|
----------------------------------|
--0-0-0-0-0-0-0-0-0-0-0-0-1-1-1-1-|


  S S S S S S S S S S S S S S S S
----------------------------------|
----------------------------------|
----------------------------------|
----------------------------------|
----------------------------------|
--3-3-3-3-3-3-3-3-----------------|
------------------0-0-0-0-0-0-0-0-|


  S S S S S S S S S S S S S S S S
----------------------------------|
----------------------------------|
----------------------------------|
----------------------------------|
----------------------------------|
----------------------------------|
--0-0-0-0-4-4-4-4-3-3-3-3-3-3-3-3-|


  S S S S S S S S S S S S S S S S
----------------------------------|
----------------------------------|
----------------------------------|
----------------------------------|
----------------------------------|
--6-6-6-6-----------------5-5-5-5-|
----------4-4-4-4-3-3-3-3---------|


                 PM
  Q    Q    Q    Q
----------------------|
----------------------|
----------------------|
----------------------|
--0----L----L---------|
--0----L----L----1----|
--0----L----L----1----|


  Q    Q    Q    Q
----------------------|
----------------------|
----------------------|
----------------------|
--5----L----0----L----|
--3----L----0---------|
------------0----L----|


  Q    Q    Q    Q
----------------------|
----------------------|
----------------------|
----------------------|
--L----4----3----L----|
--L----4----3----L----|
--L----4----3----L----|


       PM   PM
  Q    Q    Q    Q
----------------------|
----------------------|
----------------------|
----------------------|
--8--------------7----|
--6----4----3----5----|
-------4----3---------|


                 PM
  Q    Q    Q    Q
----------------------|
----------------------|
----------------------|
----------------------|
--0----L----L---------|
--0----L----L----1----|
--0----L----L----1----|


  Q    Q    Q    Q
----------------------|
----------------------|
----------------------|
----------------------|
--5----L----0----L----|
--3----L----0---------|
------------0----L----|


  Q    Q    Q    Q
----------------------|
----------------------|
----------------------|
----------------------|
--L----4----3----L----|
--L----4----3----L----|
--L----4----3----L----|


       PM   PM
  Q    Q    Q    Q
----------------------|
----------------------|
----------------------|
----------------------|
--8--------------7----|
--6----4----3----5----|
-------4----3---------|


  PM             PM PM
  Q    Q    Q    E  E
-----------------------|
-----------------------|
-----------------------|
-----------------------|
-----------------------|
--1--------------1--1--|
--2--------------2--2--|


  PM PM      PM PM
  E  E  Q    E  E  Q
------------------------|
------------------------|
------------------------|
------------------------|
------------------------|
--1--1-------1--1-------|
--2--2-------2--2-------|


       PM PM PM PM PM   PM
  Q    S  S  S  S  Q    Q
-----------------------------|
-----------------------------|
-----------------------------|
-----------------------------|
-----------------------------|
-------1--1--1--1--1----1----|
-------2--2--2--2--2----2----|


  PM PM      PM PM
  E  E  Q    E  E  Q
------------------------|
------------------------|
------------------------|
------------------------|
------------------------|
--1--1-------1--1-------|
--2--2-------2--2-------|


  PM             PM PM
  Q    Q    Q    E  E
-----------------------|
-----------------------|
-----------------------|
-----------------------|
-----------------------|
--1--------------1--1--|
--2--------------2--2--|


  PM PM      PM PM
  E  E  Q    E  E  Q
------------------------|
------------------------|
------------------------|
------------------------|
------------------------|
--1--1-------1--1-------|
--2--2-------2--2-------|


       PM PM PM PM PM   PM
  Q    S  S  S  S  Q    Q
-----------------------------|
-----------------------------|
-----------------------------|
-----------------------------|
-----------------------------|
-------1--1--1--1--1----1----|
-------2--2--2--2--2----2----|


  PM PM      PM PM
  E  E  Q    E  E  Q
------------------------|
------------------------|
------------------------|
------------------------|
------------------------|
--1--1-------1--1-------|
--2--2-------2--2-------|


  S S S S S S S S S S S S S S S S
----------------------------------|
----------------------------------|
----------------------------------|
----------------------------------|
----------------------------------|
--------------------------2-2-2-2-|
--4-4-4-4-1-1-1-1-0-0-0-0---------|


  S S S S S S S S S S S S S S S S
----------------------------------|
----------------------------------|
----------------------------------|
----------------------------------|
----------------------------------|
----------------------------------|
--5-5-5-5-2-2-2-2-5-5-5-5-2-2-2-2-|


  S S S S S S S S S S S S S S S S
----------------------------------|
----------------------------------|
----------------------------------|
----------------------------------|
----------------------------------|
--------------------------2-2-2-2-|
--4-4-4-4-1-1-1-1-0-0-0-0---------|


  E    E  E    E  E    E  E    E
--------------------------8h--11--|
------------------7h--10----------|
----------8h--11------------------|
--7h--10--------------------------|
----------------------------------|
----------------------------------|
----------------------------------|


  E    E  E    E  E    E  E    E
--------------------------9h--12--|
------------------8h--11----------|
----------9h--12------------------|
--8h--11--------------------------|
----------------------------------|
----------------------------------|
----------------------------------|


  S S S S S S S S S S S S S S S S
----------------------------------|
----------------------------------|
----------------------------------|
----------------------------------|
----------------------------------|
--------------------------2-2-2-2-|
--4-4-4-4-1-1-1-1-0-0-0-0---------|


  S S S S S S S S S S S S S S S S
----------------------------------|
----------------------------------|
----------------------------------|
----------------------------------|
----------------------------------|
----------------------------------|
--5-5-5-5-2-2-2-2-5-5-5-5-2-2-2-2-|


  S S S S S S S S S S S S S S S S
----------------------------------|
----------------------------------|
----------------------------------|
----------------------------------|
----------------------------------|
--------------------------2-2-2-2-|
--4-4-4-4-1-1-1-1-0-0-0-0---------|


  S S S S S S S S S S S S S S S S
----------------------------------|
----------------------------------|
----------------------------------|
----------------------------------|
--6-6-6-6---------9-9-9-9---------|
----------5-5-5-5---------8-8-8-8-|
----------------------------------|


  S S S S S S S S S S S S S S S S
----------------------------------|
----------------------------------|
----------------------------------|
----------------------------------|
----------------------------------|
--------------------------2-2-2-2-|
--4-4-4-4-1-1-1-1-0-0-0-0---------|


  S S S S S S S S S S S S S S S S
----------------------------------|
----------------------------------|
----------------------------------|
----------------------------------|
----------------------------------|
----------------------------------|
--5-5-5-5-2-2-2-2-5-5-5-5-2-2-2-2-|


  S S S S S S S S S S S S S S S S
----------------------------------|
----------------------------------|
----------------------------------|
----------------------------------|
----------------------------------|
--------------------------2-2-2-2-|
--4-4-4-4-1-1-1-1-0-0-0-0---------|


  S S S S S S S S S S S S S S S S
----------------------------------|
----------------------------------|
----------------------------------|
----------------------------------|
--6-6-6-6---------9-9-9-9---------|
----------5-5-5-5---------8-8-8-8-|
----------------------------------|


   S  S  S  S S S S S S S S S S S S S
--------------------------------------|
--------------------------------------|
--------------------------------------|
--10-10-10-10-------------------------|
--------------9-9-9-9---------9-9-9-9-|
----------------------8-8-8-8---------|
--------------------------------------|


   Q     Q     Q     Q
--------------------------|
--13----13----13----13----|
--16----16----16----16----|
--------------------------|
--------------------------|
--------------------------|
--------------------------|


  PM                  PM
  W                   W
-------------------|-------------------|
-------------------|-------------------|
-------------------|-------------------|
-------------------|-------------------|
-------------------|-------------------|
--1----------------|--0----------------|
--2----------------|--1----------------|


  PM                  PM
  W                   H        H
-------------------|--------------------|
-------------------|--------------------|
-------------------|--------------------|
-------------------|--------------------|
-------------------|--------------------|
--4----------------|--3-----------------|
--5----------------|--4--------1--------|


  PM                  PM
  W                   W
-------------------|-------------------|
-------------------|-------------------|
-------------------|-------------------|
-------------------|-------------------|
-------------------|-------------------|
--1----------------|--0----------------|
--2----------------|--1----------------|


  PM                  PM
  W                   H        H
-------------------|--------------------|
-------------------|--------------------|
-------------------|--------------------|
-------------------|--------------------|
-------------------|--------------------|
--4----------------|--3-----------------|
--5----------------|--4--------1--------|


  PM                  PM
  W                   W
-------------------|-------------------|
-------------------|-------------------|
-------------------|-------------------|
-------------------|-------------------|
-------------------|-------------------|
--1----------------|--0----------------|
--2----------------|--1----------------|


  PM                  PM
  W                   H        H
-------------------|--------------------|
-------------------|--------------------|
-------------------|--------------------|
-------------------|--------------------|
-------------------|--------------------|
--4----------------|--3-----------------|
--5----------------|--4--------1--------|


  PM                  PM
  W                   W
-------------------|-------------------|
-------------------|-------------------|
-------------------|-------------------|
-------------------|-------------------|
-------------------|-------------------|
--1----------------|--0----------------|
--2----------------|--1----------------|


  PM                  PM
  W                   H        H
-------------------|--------------------|
-------------------|--------------------|
-------------------|--------------------|
-------------------|--------------------|
-------------------|--------------------|
--4----------------|--3-----------------|
--5----------------|--4--------1--------|


   Q     Q     Q     Q
--------------------------|
--13----13----13----13----|
--16----16----16----16----|
--------------------------|
--------------------------|
--------------------------|
--------------------------|


                        PM   PM   PM   PM
   W                    Q    Q    Q    Q
---------------------|----------------------|
---------------------|----------------------|
---------------------|----------------------|
---------------------|----------------------|
---------------------|----------------------|
---------------------|--4----1----0----1----|
--(0)----------------|--4----1----0----1----|


  PM   PM   PM   PM
  Q    Q    Q    Q
----------------------|
----------------------|
----------------------|
----------------------|
----------------------|
--2----1----0----2----|
--2----1----0----2----|


  PM   PM   PM   PM
  Q    Q    Q    Q
----------------------|
----------------------|
----------------------|
----------------------|
----------------------|
--4----1----0----1----|
--4----1----0----1----|


  PM   PM   PM
  Q    Q    Q     Q
-----------------------|
-----------------11----|
-----------------------|
------------------9----|
-----------------------|
--2----1----0----------|
--2----1----0----------|


  PM   PM   PM   PM
  Q    Q    Q    Q
----------------------|
----------------------|
----------------------|
----------------------|
----------------------|
--4----1----0----1----|
--4----1----0----1----|


  PM   PM   PM   PM
  Q    Q    Q    Q
----------------------|
----------------------|
----------------------|
----------------------|
----------------------|
--2----1----0----2----|
--2----1----0----2----|


  PM   PM   PM   PM
  Q    Q    Q    Q
----------------------|
----------------------|
----------------------|
----------------------|
----------------------|
--4----1----0----1----|
--4----1----0----1----|


  PM   PM   PM
  Q    Q    Q     Q
-----------------------|
-----------------11----|
-----------------------|
------------------9----|
-----------------------|
--2----1----0----------|
--2----1----0----------|


  Q    Q    Q    Q
----------------------|
----------------------|
----------------------|
----------------------|
----------------------|
----------------------|
--4----1----0----1----|


  Q    Q    Q    Q
----------------------|
----------------------|
----------------------|
----------------------|
----------------------|
----------------------|
--2----1----0----2----|


  Q    Q    Q    Q
----------------------|
----------------------|
----------------------|
----------------------|
----------------------|
----------------------|
--4----1----0----1----|


  Q    Q    Q    Q
----------------------|
-----------------7----|
-----------------5----|
----------------------|
----------------------|
----------------------|
--2----1----0---------|


  Q    Q    Q    Q
----------------------|
----------------------|
----------------------|
----------------------|
----------------------|
----------------------|
--4----1----0----1----|


  Q    Q    Q    Q
----------------------|
----------------------|
----------------------|
----------------------|
----------------------|
----------------------|
--2----1----0----2----|


  Q    Q    Q    Q
----------------------|
----------------------|
----------------------|
----------------------|
----------------------|
----------------------|
--4----1----0----1----|


                         PM       PM
  Q    Q    Q    Q       H        Q    Q
----------------------|---------------------|
-----------------7----|---------------------|
-----------------5----|---------------------|
----------------------|---------------------|
----------------------|----------------4----|
----------------------|--4--------4----3----|
--2----1----0---------|--4--------4---------|


  PM       PM           PM       PM
  H        Q    Q       H        Q    Q
---------------------|---------------------|
---------------------|---------------------|
---------------------|---------------------|
---------------------|---------------------|
----------------4----|----------------4----|
--4--------4----3----|--4--------4----3----|
--4--------4---------|--4--------4---------|


  PM       PM           PM       PM
  H        Q    Q       H        Q    Q
---------------------|---------------------|
---------------------|---------------------|
---------------------|---------------------|
---------------------|---------------------|
----------------5----|----------------4----|
--4--------4----4----|--4--------4----3----|
--4--------4---------|--4--------4---------|


  PM       PM           PM       PM
  H        Q    Q       H        Q    Q
---------------------|---------------------|
---------------------|---------------------|
---------------------|---------------------|
---------------------|---------------------|
----------------4----|----------------4----|
--4--------4----3----|--4--------4----3----|
--4--------4---------|--4--------4---------|


  Q     Q     Q     Q
-------------------------|
-------------------------|
-------------------------|
-------------------------|
--6s----9-----6s----9----|
--5-----8s----5-----8----|
-------------------------|


  PM       PM           PM       PM
  H        Q    Q       H        Q    Q
---------------------|---------------------|
---------------------|---------------------|
---------------------|---------------------|
---------------------|---------------------|
----------------4----|----------------4----|
--4--------4----3----|--4--------4----3----|
--4--------4---------|--4--------4---------|


  PM       PM           PM       PM
  H        Q    Q       H        Q    Q
---------------------|---------------------|
---------------------|---------------------|
---------------------|---------------------|
---------------------|---------------------|
----------------4----|----------------5----|
--4--------4----3----|--4--------4----4----|
--4--------4---------|--4--------4---------|


  PM       PM           PM       PM
  H        Q    Q       H        Q    Q
---------------------|---------------------|
---------------------|---------------------|
---------------------|---------------------|
---------------------|---------------------|
----------------4----|----------------4----|
--4--------4----3----|--4--------4----3----|
--4--------4---------|--4--------4---------|


  PM       PM
  H        Q    Q       Q    Q    Q    Q
---------------------|----------------------|
---------------------|----------------------|
---------------------|----------------------|
---------------------|----------------------|
----------------4----|----------------------|
--4--------4----3----|----------------------|
--4--------4---------|--4----1----3----0----|


  Q    Q    Q    Q
----------------------|
----------------------|
----------------------|
----------------------|
----------------------|
----------------------|
----------------------|


  PM   PM PM   PM PM
  Q    E  Q    E  Q
-----------------------|
-----------------------|
-----------------------|
-----------------------|
-----------------------|
--2----2--2----2--2----|
--2----2--2----2--2----|


   Q     Q     Q     Q
--------------------------|
--13----13----13----13----|
--16----16----16----16----|
--------------------------|
--------------------------|
--------------------------|
--------------------------|


  PM   PM PM   PM PM
  Q    E  Q    E  Q
-----------------------|
-----------------------|
-----------------------|
-----------------------|
-----------------------|
--2----2--2----2--2----|
--2----2--2----2--2----|


  PM   PM   PM   PM   PM   PM
  E  S E  S E  S E  S E  S E  S
--------------------------------|
--------------------------------|
--------------------------------|
--------------------------------|
--------------------------------|
--1----1----1----1----1----1----|
--2----2----2----2----2----2----|


  PM   PM PM   PM PM
  Q    E  Q    E  Q
-----------------------|
-----------------------|
-----------------------|
-----------------------|
-----------------------|
--2----2--2----2--2----|
--2----2--2----2--2----|


  Q    Q    Q    Q
----------------------|
----------------------|
----------------------|
----------------------|
----------------------|
----------------------|
----------------------|


  PM   PM PM   PM PM
  Q    E  Q    E  Q
-----------------------|
-----------------------|
-----------------------|
-----------------------|
-----------------------|
--2----2--2----2--2----|
--2----2--2----2--2----|


  PM   PM   PM   PM   PM   PM   PM   PM   PM
  E  S E  S E  S E  S E  S E  S E  S E  S E
---------------------------------------------|
---------------------------------------------|
---------------------------------------------|
---------------------------------------------|
---------------------------------------------|
--1----1----1----1----1----1----1----1----1--|
--2----2----2----2----2----2----2----2----2--|


  PM   PM PM   PM PM
  Q    E  Q    E  Q
-----------------------|
-----------------------|
-----------------------|
-----------------------|
-----------------------|
--2----2--2----2--2----|
--2----2--2----2--2----|


   Q     Q     Q     Q
--------------------------|
--13----13----13----13----|
--16----16----16----16----|
--------------------------|
--------------------------|
--------------------------|
--------------------------|


  PM   PM PM   PM PM
  Q    E  Q    E  Q
-----------------------|
-----------------------|
-----------------------|
-----------------------|
-----------------------|
--2----2--2----2--2----|
--2----2--2----2--2----|


  PM   PM   PM   PM   PM   PM
  E  S E  S E  S E  S E  S E  S
--------------------------------|
--------------------------------|
--------------------------------|
--------------------------------|
--------------------------------|
--1----1----1----1----1----1----|
--2----2----2----2----2----2----|


  PM   PM PM   PM PM
  Q    E  Q    E  Q
-----------------------|
-----------------------|
-----------------------|
-----------------------|
-----------------------|
--2----2--2----2--2----|
--2----2--2----2--2----|


  Q    Q    Q    Q
----------------------|
----------------------|
----------------------|
----------------------|
----------------------|
----------------------|
----------------------|


  PM   PM PM   PM PM
  Q    E  Q    E  Q
-----------------------|
-----------------------|
-----------------------|
-----------------------|
-----------------------|
--2----2--2----2--2----|
--2----2--2----2--2----|


  PM   PM   PM   PM   PM   PM   PM   PM   PM
  E  S E  S E  S E  S E  S E  S E  S E  S E
---------------------------------------------|
---------------------------------------------|
---------------------------------------------|
---------------------------------------------|
---------------------------------------------|
--1----1----1----1----1----1----1----1----1--|
--2----2----2----2----2----2----2----2----2--|


                   PM PM
  H           Q    E  E  Q    Q
-----------|-----------------------|
-----------|-----------------------|
-----------|-----------------------|
-----------|-----------------------|
-----------|-----------------------|
-----------|-------0--0------------|
-----------|--1----1--1------------|


  PM PM PM PM PM PM PM PM
  E  E  E  E  E  E  E  E
--------------------------|
--------------------------|
--------------------------|
--------------------------|
--------------------------|
--0--0--0--0--0--0--0--0--|
--1--1--1--1--1--1--1--1--|


       PM PM
  Q    E  E  Q    Q
-----------------------|
-----------------------|
-----------------------|
-----------------------|
-----------------------|
-------0--0------------|
--1----1--1------------|


       PM PM
  Q    E  E  Q    Q
-----------------------|
-----------------------|
-----------------------|
-----------------------|
-----------------------|
-------0--0------------|
--1----1--1------------|


       PM PM
  Q    E  E  Q    Q
-----------------------|
-----------------------|
-----------------------|
-----------------------|
-----------------------|
-------0--0------------|
--1----1--1------------|


  PM PM PM PM PM PM PM PM
  E  E  E  E  E  E  E  E
--------------------------|
--------------------------|
--------------------------|
--------------------------|
--------------------------|
--0--0--0--0--0--0--0--0--|
--1--1--1--1--1--1--1--1--|


       PM PM
  Q    E  E  Q    Q
-----------------------|
-----------------------|
-----------------------|
-----------------------|
-----------------------|
-------0--0------------|
--1----1--1------------|


       PM PM
  Q    E  E  Q    Q
-----------------------|
-----------------------|
-----------------------|
-----------------------|
-----------------------|
-------0--0------------|
--1----1--1------------|


       PM PM
  Q    E  E  Q    Q
-----------------------|
-----------------------|
-----------------------|
-----------------------|
-----------------------|
-------1--1--L----L----|
--0----0--0--L----L----|


  PM PM PM PM PM PM PM PM
  E  E  E  E  E  E  E  E
--------------------------|
--------------------------|
--------------------------|
--------------------------|
--------------------------|
--1--1--1--1--1--1--1--1--|
--0--0--0--0--0--0--0--0--|


       PM PM
  Q    E  E  Q    Q
-----------------------|
-----------------------|
-----------------------|
-----------------------|
-----------------------|
-------1--1--L----L----|
--0----0--0--L----L----|


       PM PM
  Q    E  E  Q    Q
-----------------------|
-----------------------|
-----------------------|
-----------------------|
-----------------------|
-------1--1--L----L----|
--0----0--0--L----L----|


       PM PM
  Q    E  E  Q    Q
-----------------------|
-----------------------|
-----------------------|
-----------------------|
-----------------------|
-------1--1--L----L----|
--0----0--0--L----L----|


  PM PM PM PM PM PM PM PM
  E  E  E  E  E  E  E  E
--------------------------|
--------------------------|
--------------------------|
--------------------------|
--------------------------|
--1--1--1--1--1--1--1--1--|
--0--0--0--0--0--0--0--0--|


       PM PM
  Q    E  E  Q    Q
-----------------------|
-----------------------|
-----------------------|
-----------------------|
-----------------------|
-------1--1--L----L----|
--0----0--0--L----L----|


       PM PM
  Q    E  E  Q    Q
-----------------------||
-----------------------||
-----------------------||
-----------------------||
-----------------------||
-------1--1--L----L----||
--0----0--0--L----L----||




Duration Legend
---------------
W - whole
H - half
Q - quarter
E - 8th
S - 16th
T - 32nd
X - 64th
. - note dotted
|-n-|  - n-tuplets


Tablature Legend
----------------
L - tied note
x - dead note
g - grace note
(n) - ghost note
> - accentuded note
NH - natural harmonic
AH - artificial harmonic
TH - tapped harmonic
SH - semi harmonic
PH - pitch harmonic
h - hammer on
p - pull off
b - bend
br - bendRelease
pb - preBend
pbr - preBendRelease
brb - bendReleaseBend
\n/ - tremolo bar dip
\n - tremolo bar dive
-/n - tremolo bar Release up
/n\ - tremolo bar inverted dip
/n - tremolo bar return
-\n - tremolo bar Release down
S - shift slide
s - legato slide
/ -  slide into from below or out of upwards
\ -  slide into from above or out of downwards
~ - vibrato
W - wide vibrato
tr - trill
TP - tremolo picking
T - tapping
S - slap
P - pop
< - fade in
^ - brush up
v - brush down
Tap to rate this tab
 
# A B C D E F G H I J K L M N O P Q R S T U V W X Y Z