Song name
# A B C D E F G H I J K L M N O P Q R S T U V W X Y Z

Misc Unsigned Bands - Goons Of Doom - Fingered tab

-------------------------------------------------------------------------------
			     Fingered - Goons of Doom
-------------------------------------------------------------------------------
Tabbed by: Cia_Splinter
Email: ciasplinter@yahoo.com

Tuning: standard
Basically, there's one tab on here and it sucks. so here's one that's a bit better. The
other guy was right for the first part, but here it is just to clarify.

e|-----------------------------------------------------------------|
B|-----------------------------------------------------------------|
G|-----------------------------------------------------------------|   x2
D|-----------------------------------------------------------------|
A|----4---7-5-4-------4---7-5-4-------4---7-5-4-------4---7-5-4----|
E|5---------------5---------------5---------------5----------------|


            Then the same thing, just move up a string
e|-----------------------------------------------------------------|
B|-----------------------------------------------------------------|
G|-----------------------------------------------------------------|
D|----4---7-5-4-------4---7-5-4------------------------------------|
A|5---------------5-------------------4---7-5-4-------4---7-5-4----|
E|--------------------------------5---------------5----------------|

            This is where the first verse starts. Pretty easy to figure out until the
chorus, which is a bit different.
e|-----------------------------------------------------------------|
B|-----------------------------------------------------------------|
G|------------------------------------4-2-----------4-2------------|
D|--------4-2-----------4-2-------4-------------4------------------|
A|----4-------------4---------5-5---5-------5-5---5----------------|
E|5-5---5-------5-5---5--------------------------------------------|

And if you've got a friend with a guitar who can only play power chords, have him do the
rhythm guitar part at the same time:
e|-----------------------------------------------------------------|
B|-----------------------------------------------------------------|
G|--------------------------------7-7-7-7-7-7-7-7-7-7-7-7-7-7-7-7--|
D|7-7-7-7-7-7-7-7-7-7-7-7-7-7-7-7-7-7-7-7-7-7-7-7-7-7-7-7-7-7-7-7--|
A|7-7-7-7-7-7-7-7-7-7-7-7-7-7-7-7-5-5-5-5-5-5-5-5-5-5-5-5-5-5-5-5--|
E|5-5-5-5-5-5-5-5-5-5-5-5-5-5-5-5----------------------------------|

The timing isn't 100% accurate because I suck at tabbing, but it's super easy to figure
out once you've listened to the song. Anyway, I'm pretty sure the notes are right and
it's much better than the other tab. Hopefully someone will come along and make a 
fantastic perfect tab, but until then this one will do.
Tap to rate this tab
 
# A B C D E F G H I J K L M N O P Q R S T U V W X Y Z