Song name
# A B C D E F G H I J K L M N O P Q R S T U V W X Y Z

Misc Unsigned Bands - Monogrenade - De Toute Facon tab

Artist: Monogrenade
Song: De toute fašon
Album: Single
Tuning: Standard

Intro

e |--0--x--0---x--0--0-------|
B |--1--x--1---x--1--1-------|
G |--0--x--0---x--0--2-------|
D |--2--x--2---x--2--3-------|
A |--3--x--3---x--3--3-------| 	
E |--x--x--x---x--x--x-------|

Verse 1 & 2

e |--0--x--0---x--0--0-------|
B |--1--x--1---x--1--1-------|
G |--0--x--0---x--0--2-------|
D |--2--x--2---x--2--3-------|
A |--3--x--3---x--3--3-------| 	
E |--x--x--x---x--x--x-------|


Pre-Chorus/Interlude


e |--0------0-------------|
B |--1------1-------------|
G |--2------0-------------|
D |--3------2-------------|
A |--3------3-------------| 	
E |--x------x-------------|


Chorus

e |--0-----0--------------|
B |--3-----1--------------|
G |--2-----2--------------|
D |--0-----2--------------|
A |--0-----0--------------| 	
E |--x-----x--------------|

Rate and Comment!
Tap to rate this tab
 
# A B C D E F G H I J K L M N O P Q R S T U V W X Y Z