Song name
# A B C D E F G H I J K L M N O P Q R S T U V W X Y Z

Misc Unsigned Bands - Mitzis Revenge - Outflanked tab

-----------------------------------------------------------------------------
			     Outlanked - Mitzi's Revenge
-----------------------------------------------------------------------------

Tabbed by:Fall_of_fame234
Email:Barlowalexander@hotmail.co.uk

Tuning: Drop D


I will warn you. im not too sure on all of this tab, so if you have any corrections E-mail me :)

Intro

e|--------------------------------------------------------------------------|
B|--------------------------------------------------------------------------|
G|--------------------------------------------------10-10-10-10-10-10-10-10-|
D|-10-0-0--10-0-0--10-0-0--10-0-0--10-0-0--10-0-0---10-10-10-10-10-10-10-10-|
A|-10-0-0--10-0-0--10-0-0--10-0-0--10-0-0--10-0-0----8--8--8--8--8--8--8--8-|
D|-10-0-0--10-0-0--10-0-0--10-0-0--10-0-0--10-0-0---------------------------|
        x       x       x       x       x       x

Verse

(outflanked, out gunned, out numbered...)
e|--------------------------------------------------------------------|
B|--------------------------------------------------------------------|
G|--------------------------------------------------------------------|
D|--------------------------------------------------------------------|
A|--5-5-5-5-5-5-5-5-5-5-5-5-5-5-5-5--8-8-8-8-8-8-8-8-8-8-8-8-8-8-8-8--|
D|--------------------------------------------------------------------|

e|--------------------------------------------------------------------|
B|--------------------------------------------------------------------|
G|--------------------------------------------------------------------|
D|-----------------------------------5-5-5-5-5-5-5-5-5-5-5-5-5-5-5-5--|
A|--7-7-7-7-7-7-7-7-7-7-7-7-7-7-7-7-----------------------------------|
D|--------------------------------------------------------------------|

Verse 2

(Im a liar, a ghost, a disease...)
e|--------------------------------------------------------------------------|
B|--------------------------------------------------------------------------|
G|--------------------------------------------------10-10-10-10-10-10-10-10-|
D|-10-0-0--10-0-0--10-0-0--10-0-0--10-0-0--10-0-0---10-10-10-10-10-10-10-10-|
A|-10-0-0--10-0-0--10-0-0--10-0-0--10-0-0--10-0-0----8--8--8--8--8--8--8--8-|
D|-10-0-0--10-0-0--10-0-0--10-0-0--10-0-0--10-0-0---------------------------|
        x       x       x       x       x       x

Pre-Chorus

(Outflanked, Cos im...)
e|----------------------|
B|----------------------|
G|----------------------|
D|--0~---1~---0~---1-3--|
A|--0~---1~---0~---1-3--|
D|--0~---1~---0~---1-3--|



Chorus

e|---------------------------------------------------------|
B|---------------------------------------------------------|
G|---------------------------------------------------------|
D|--0--0---1---3---4---3---1---3--4--3--4------------------|
A|--0--0---1---3---4---3---1---3--4--3--4------------------|
D|--0--0---1---3---4---3---1---3--4--3--4------------------|

e|---------------------------------------------------------|
B|---------------------------------------------------------|
G|-----------------------------3~-------------3~-----------|
D|--0--0---1---3---4----0-0----3~------0-0----3~-----------|
A|--0--0---1---3---4----0-0----1~------0-0----1~-----------|
D|--0--0---1---3---4----0-0------------0-0-----------------|


Thats pretty much it, you can figure the rest out from there. 
Please rate :)





**********************************

| /   slide up
| \   slide down
| h   hammer-on
| p   pull-off
| ~   vibrato
| +   harmonic
| x   Mute note
| b   Bend
| pb  Pre-bend
| br  Bend release
| pbr Pre-bend release
| brb Bend release bend

************************************
Tap to rate this tab
 
# A B C D E F G H I J K L M N O P Q R S T U V W X Y Z