Song name
# A B C D E F G H I J K L M N O P Q R S T U V W X Y Z

Misc Unsigned Bands - Noice - Bedrande Barn Av Sin Tid tab

Bedårande barn av sin tid - Noice

Standard tuning

Intro guitar 1:
E-------------------------------------------------------------------|
B-------------------------------------------------------------------|
G--7-7-7-7-7-7-7-7-7-7-7-7-7-7-7-7----------------------------------|
D--7-7-7-7-7-7-7-7-7-7-7-7-7-7-7-7-3-3-3-3-3-3-3-3-3-3-3-3-3-3-3-3--|
A--5-5-5-5-5-5-5-5-5-5-5-5-5-5-5-5-3-3-3-3-3-3-3-3-3-3-3-3-3-3-3-3--|
E----------------------------------1-1-1-1-1-1-1-1-1-1-1-1-1-1-1-1--|

Intro Guitar 2:
(on the original song this is played on synth 
but on the 2004 version it's played on guitar)
E-----------------------------------------------------|
B--------10--------10--------10--------10--------10---|
G--7--9------7--9------7--9------7--9------7--9-------|
D-----------------------------------------------------|
A-----------------------------------------------------|
E-----------------------------------------------------|

E------------------------------------------------------|
B--------13--------13--------13--------13---------13---|
G--10-12-----10-12-----10-12-----10-12------10-12------|
D------------------------------------------------------|
A------------------------------------------------------|
E------------------------------------------------------|

Vers:
   Se, vem  kommer  där       Som en deja vu som nån jag sett förut 
E-------------------------------------------------------------------|
B-------------------------------------------------------------------|
G--7-7-7-7-7-7-7-7-7-7-7-7-7-7-7-7----------------------------------|
D--7-7-7-7-7-7-7-7-7-7-7-7-7-7-7-7-3-3-3-3-3-3-3-3-3-3-3-3-3-3-3-3--|
A--5-5-5-5-5-5-5-5-5-5-5-5-5-5-5-5-3-3-3-3-3-3-3-3-3-3-3-3-3-3-3-3--|
E----------------------------------1-1-1-1-1-1-1-1-1-1-1-1-1-1-1-1--|

Pre-chorus:
  Men varför stirrar dom pratar om honom, vänder sig om
E---------------------------------------------------------|
B---------------------------------------------------------|
G--3--3--3--3--3--3--3------------------------------------|
D--3--3--3--3--3--3--3---3---3---3---3---3---3---3---3----|
A--1--1--1--1--1--1--1---3---3---3---3---3---3---3---3----|
E------------------------1---1---1---1---1---1---1---1----|

  Kan dom inte se att han e ett bedårande barn av sin tid 
E----------------------------------------------------------|
B----------------------------------------------------------|
G--3--3--3--3--3--3--3--3------------------5--5--5--5--5---|
D--3--3--3--3--3--3--3--3---5--5--5--5--5--5--5--5--5--5---|
A--1--1--1--1--1--1--1--1---5--5--5--5--5--3--3--3--3--3---|
E---------------------------3--3--3--3--3------------------|

Chorus:
  Ett bedårande barn av sin tid (Bedårande barn av sin tid)
E--------------------------------------------------------|
B--------------------------------------------------------|
G---7---7---5---5---3---3---3---3---3---3---3---3---3----|
D---7---7---5---5---3---3---3---3---3---3---3---3---3----|
A---5---5---3---3---1---1---1---1---1---1---1---1---1----|
E--------------------------------------------------------|
Tap to rate this tab
 
# A B C D E F G H I J K L M N O P Q R S T U V W X Y Z