Song name
# A B C D E F G H I J K L M N O P Q R S T U V W X Y Z

Misc Unsigned Bands - Vanessa James - Summer tab

Vanessa James - Summer

e-------------------------------------------------------------------------|
B-------------------------------------------------------------------------|
G-------8-8-8-8-10-12-------------------12-8------------------------------|
D---------------------11-13-13-13-13-11-----------------------------------|
A-------------------------------------------------------------------------|
E-------------------------------------------------------------------------|

e-------------------------------------------------------------------------|
B-------------------------------------------------------------------------|
G-------8-8-8-8-10-12-------------12--------------------------------------|
D---------------------11-13-13-13----11-----------------------------------|
A-------------------------------------------------------------------------|
E-------------------------------------------------------------------------|

e-------------------------------------------------------------------------|
B-------------------------------------------------------------------------|
G--3/5-8-5-8-10-12-10-8-5-8-5-8-10-7-12-12-12-10-12-10-8------------------|
D-------------------------------------------------------------------------|
A-------------------------------------------------------------------------|
E-------------------------------------------------------------------------|

(if you want you can repeat it, so you can make the song longer)
This was my first tab. Hope you enjoy it!
Tap to rate this tab
 
# A B C D E F G H I J K L M N O P Q R S T U V W X Y Z