Song name
# A B C D E F G H I J K L M N O P Q R S T U V W X Y Z

Misc Unsigned Bands - Ramona - Rockaby Baby tab

This tab is officially done by the Lead guitarist of the band :)

X= Palm Mute

Intro/Chorus

---------------------------------------------------------------|
---------------------------------------------------------------|
---------------------------121212121212121212-11----11-9-------|
-99999999-1212121212121212-121212121212121212-11----11-9-12-9--|  x8
-99999999-1212121212121212-101010101010101010-9-----9--7-12-9--|
-77777777-1010101010101010-------------------------------10-7--|

Pre Verse/Middle 8 pt1

--------------------------|
--------------------------|
-------------------12-11--|
-9999999999999999--12-11--|
-9999999999999999--10-9---|
-7777777777777777---------|

Verse pt1

---------------------------------------|
---------------------------------------|
--------------------------------12-11--|
-9999999999999999-55555555------12-11--| X3
-9999999999999999-55555555-4444-10-9---|
-7777777777777777-33333333-2222--------|
 XXXXXXXXXXXXXXXX-XXXXXXXX-XXXX

Verse pt2

-------------------------------------|
-------------------------------------|
-------------------------------------|
-9999999999999999-55555555-----------|
-9999999999999999-55555555-44444444--|
-7777777777777777-33333333-22222222--|
 XXXXXXXXXXXXXXXX-XXXXXXXX-XXXXXXXX

Pre Chorus

-----------------|
-----------------|
-----------------|
-5-----------4---|
-5-----------4---|
-3-----------2---|

Middle 8 Pt 2

------------------------------|
------------------------------|
-----------------12---11------|
-9-------12----12--12-11------| X4
-9-------12--10-------9-------|
-7-------10-------------------|



Order:
Intro
Pre Verse
Verse
Pre Chorus
Chorus
Pre Verse
Verse
Pre Chorus
Chorus
Middle8 pt1 x4
Middle8 pt2
Chorus x8
Tap to rate this tab
 
# A B C D E F G H I J K L M N O P Q R S T U V W X Y Z