Song name
# A B C D E F G H I J K L M N O P Q R S T U V W X Y Z

Misc Unsigned Bands - Goodbye Blue Skies - Aaahh Real Monsters tab

Goodbye Blue Skies - AAAHH!!! Real Monsters.txt

C  :------------------------|------------------------|
B  :------------------------|------------------------|
F# :------------12-12-12-12-|12-14-14-14-14-15-15-15-|
C# :0-0-0-0-0-0-------------|------------------------|
G# :0-0-0-0-0-0-10-10-10-10-|10-12-12-12-12-13-13-13-|
C# :0-0-0-0-0-0-------------|------------------------|

C  :------------------------|-----------------------|----------------|
B  :------------------------|-----------------------|----------------|
F# :------------12-12-12-12-|12-14-14-14-14-12-12---|----------------|
C# :0-0-0-0-0-0-------------|---------------------8-|--8-8-8-8-8-8-8-|
G# :0-0-0-0-0-0-10-10-10-10-|10-12-12-12-12-10-10-8-|--8-8-8-8-8-8-8-|
C# :0-0-0-0-0-0-------------|---------------------8-|--8-8-8-8-8-8-8-|

C  :----------------|----------------|----------------|----------------|
B  :----------------|----------------|----------------|----------------|
F# :----------------|----------------|----------------|----------------|
C# :8-8-8-8-8-8-8-5-|--5-5-5-5-5-5-5-|5-5-5-5-5-5-5-0-|--0-0-0-0-0-0-0-|
G# :8-8-8-8-8-8-8-5-|--5-5-5-5-5-5-5-|5-5-5-5-5-5-5-0-|--0-0-0-0-0-0-0-|
C# :8-8-8-8-8-8-8-5-|--5-5-5-5-5-5-5-|5-5-5-5-5-5-5-0-|--0-0-0-0-0-0-0-|

C  :----------------|----------------|----------------|----------------|
B  :----------------|----------------|----------------|----------------|
F# :----------------|----------------|----------------|----------------|
C# :3-0-3-0-3-5-3-0-|--0-0-0-0-0-0-0-|3-0-3-0-3-5-3-8-|--8-8-8-8-8-8-8-|
G# :3-0-3-0-3-5-3-0-|--0-0-0-0-0-0-0-|3-0-3-0-3-5-3-8-|--8-8-8-8-8-8-8-|
C# :3-0-3-0-3-5-3-0-|--0-0-0-0-0-0-0-|3-0-3-0-3-5-3-8-|--8-8-8-8-8-8-8-|

C  :----------------|----------------|----------------|----------------|
B  :----------------|----------------|----------------|----------------|
F# :----------------|----------------|----------------|----------------|
C# :8-8-8-8-8-8-8-5-|--5-5-5-5-5-5-5-|5-5-5-5-5-5-5-0-|--0-0-0-0-0-0-0-|
G# :8-8-8-8-8-8-8-5-|--5-5-5-5-5-5-5-|5-5-5-5-5-5-5-0-|--0-0-0-0-0-0-0-|
C# :8-8-8-8-8-8-8-5-|--5-5-5-5-5-5-5-|5-5-5-5-5-5-5-0-|--0-0-0-0-0-0-0-|

C  :----------------|----------------|----------------|----------------|
B  :----------------|----------------|----------------|----------------|
F# :----------------|----------------|----------------|----------------|
C# :3-0-3-0-3-5-3-0-|--0-0-0-0-0-0-0-|3-0-3-0-3-5-3-0-|8---------------|
G# :3-0-3-0-3-5-3-0-|--0-0-0-0-0-0-0-|3-0-3-0-3-5-3-0-|8---------------|
C# :3-0-3-0-3-5-3-0-|--0-0-0-0-0-0-0-|3-0-3-0-3-5-3-0-|8---------------|

C  :-----------------|------------------------|
B  :-----------------|------------------------|
F# :-----------------|------------------------|
C# :----5---------3-3|3-3-3-5--0-0-0-0-0-0----|
G# :----5---------3-3|3-3-3-5--0-0-0-0-0-0-8-0|
C# :----5---------3-3|3-3-3-5--0-0-0-0-0-0----|

C  :-----------------------------|---------------------------|
B  :-----------------------------|---------------------------|
F# :-----------------------------|---------------------------|
C# :----------------0-0-0-0-0-8-0|5-0-8-0-5-0-0-0-0-0-0-0----|
G# :5-0-8-0-5-0-8-0-0-0-0-0-0----|------------0-0-0-0-0-0-8-0|
C# :----------------0-0-0-0-0----|------------0-0-0-0-0-0----|

C  :-----------------------------|---------------------------|
B  :-----------------------------|---------------------------|
F# :-----------------------------|---------------------------|
C# :----------------0-0-0-0-0----|------------0-0-0-0-0-0----|
G# :5-0-8-0-5-0-8-0-0-0-0-0-0-7-0|4-0-7-0-4-0-0-0-0-0-0-0-8-0|
C# :----------------0-0-0-0-0----|------------0-0-0-0-0-0----|

C  :-----------------------------|---------------------------|
B  :-----------------------------|---------------------------|
F# :-----------------------------|---------------------------|
C# :----------------0-0-0-0-0-8-0|5-0-8-0-5-0-0-0-0-0-0-0----|
G# :5-0-8-0-5-0-8-0-0-0-0-0-0----|------------0-0-0-0-0-0-8-0|
C# :----------------0-0-0-0-0----|------------0-0-0-0-0-0----|

C  :-----------------------------|-------------------------|
B  :-----------------------------|-------------------------|
F# :-----------------------------|-------------------------|
C# :----------------0-0-0-0-0----|------------0-*0-0-*0-0-0|
G# :5-0-8-0-5-0-8-0-0-0-0-0-0-7-0|4-0-7-0-4-0-0-*0-0-*0-0-0|
C# :----------------0-0-0-0-0----|------------0-*0-0-*0-0-0|

C  :---------------------|-------------------|---------------------|
B  :---------------------|-------------------|---------------------|
F# :---------------------|-------------------|---------------------|
C# :0-*0-*0-0-0-0-0-0-0-0|0-*0-*0-*0-0-*0-0-0|0-*0-*0-0-0-0-0-0-0-0|
G# :0-*0-*0-0-0-0-0-0-0-0|0-*0-*0-*0-0-*0-0-0|0-*0-*0-0-0-0-0-0-0-0|
C# :0-*0-*0-0-0-0-0-0-0-0|0-*0-*0-*0-0-*0-0-0|0-*0-*0-0-0-0-0-0-0-0|

C  :----------------|----------------|----------------|----------------|
B  :------4-4-4-4-4-|4-4-4-5-5-5-5-5-|5-5-------------|----------------|
F# :------5-5-5-5-5-|5-5-5-7-7-7-7-7-|7-7-------------|----------------|
C# :0-*0-*----------|----------------|----5---5-5-5-5-|5-5-5-5-5-5-5-5-|
G# :0-*0-*----------|----------------|----5---5-5-5-5-|5-5-5-5-5-5-5-5-|
C# :0-*0-*----------|----------------|----5---5-5-5-5-|5-5-5-5-5-5-5-5-|

C  :----------------|----------------|----------------|----------------|
B  :----------------|----------------|----------------|----------------|
F# :----------------|----------------|----------------|----------------|
C# :5-5-0---0-0-0-0-|0-0-0-0-0-0-0-0-|0-0-8---8-8-8-8-|8-8-8-3-3-3-3-3-|
G# :5-5-0---0-0-0-0-|0-0-0-0-0-0-0-0-|0-0-8---8-8-8-8-|8-8-8-3-3-3-3-3-|
C# :5-5-0---0-0-0-0-|0-0-0-0-0-0-0-0-|0-0-8---8-8-8-8-|8-8-8-3-3-3-3-3-|

C  :------------------|-------------------|-----------------|
B  :--------------7-9-|7--------------7-9-|7----------------|
F# :--------10--------|--9-10-0-10--------|--9-10-----------|
C# :5-5-5-0----12-----|------------12-----|-------5-5-5-5-5-|
G# :5-5-5-0-----------|-------------------|-------5-5-5-5-5-|
C# :5-5-5-0-----------|-------------------|-------5-5-5-5-5-|

C  :----------------|----------------|----------------|----------------|
B  :----------------|----------------|----------------|----------------|
F# :----------------|----------------|----------------|----------------|
C# :5-5-5-5-5-5-5-5-|5-5-0---0-0-0-0-|0-0-0-0-0-0-0-0-|0-0-8---8-8-8-8-|
G# :5-5-5-5-5-5-5-5-|5-5-0---0-0-0-0-|0-0-0-0-0-0-0-0-|0-0-8---8-8-8-8-|
C# :5-5-5-5-5-5-5-5-|5-5-0---0-0-0-0-|0-0-0-0-0-0-0-0-|0-0-8---8-8-8-8-|

C  :----------------|------------------|-------------------|
B  :----------------|--------------7-9-|7--------------7-9-|
F# :----------------|--------10--------|--9-10-0-10--------|
C# :8-8-8-3-3-3-3-3-|5-5-5-0----12-----|------------12-----|
G# :8-8-8-3-3-3-3-3-|5-5-5-0-----------|-------------------|
C# :8-8-8-3-3-3-3-3-|5-5-5-0-----------|-------------------|

C  :-------------------|-------------------|-----------------|
B  :7--------------7-9-|7--------------7-9-|7----------------|
F# :--9-10---10--------|--9-10-0-10--------|--9-10-----------|
C# :-------0----12-----|------------12-----|-------0---------|
G# :-------0-----------|-------------------|-------0---------|
C# :-------0-----------|-------------------|-------0---------|

C  :----------------|---------------------|------------------|
B  :----------------|---------------------|------------------|
F# :----------------|---------------------|------------------|
C# :----------------|------0-0-0-0-0-0-0-0|0-0-0-0-0-*-4-----|
G# :----------------|------0-0-0-0-0-0-0-0|0-0-0-0-0-*---4-5-|
C# :----------------|------0-0-0-0-0-0-0-0|0-0-0-0-0-*-------|

C  :--------------------|---------------------|---------------------|
B  :--------------------|---------------------|---------------------|
F# :--------------------|---------------------|---------------------|
C# :------0-0-0-0-0-0-7-|--10-----0-0-0-0-0-7-|--10---8-8-8-8-8-8-7-|
G# :------0-0-0-0-0-0---|8----7---0-0-0-0-0---|8----7-8-8-8-8-8-8---|
C# :------0-0-0-0-0-0---|---------0-0-0-0-0---|-------8-8-8-8-8-8---|

C  :----------------------|--------------------------|---------------------|
B  :----------------------|--------------------------|---------------------|
F# :----------------------|--------------------------|---------------------|
C# :--10-----5-5-5-5-5----|------------0-0-0-0-0-0-7-|--10-----0-0-0-0-0-7-|
G# :8----7---5-5-5-5-5-8-0|8-0-4-0-4-0-0-0-0-0-0-0---|8----7---0-0-0-0-0---|
C# :---------5-5-5-5-5----|------------0-0-0-0-0-0---|---------0-0-0-0-0---|

C  :---------------------|----------------------|-------------------------|
B  :---------------------|----------------------|-------------------------|
F# :---------------------|----------------------|-------------------------|
C# :--10---8-8-8-8-8-8-7-|--10-----5-5-5-5-5----|------------7-0-0-0-0-7-0|
G# :8----7-8-8-8-8-8-8---|8----7---5-5-5-5-5-8-0|8-0-4-0-4-0---0-0-0-0----|
C# :-------8-8-8-8-8-8---|---------5-5-5-5-5----|--------------0-0-0-0----|

C  :-------------------------|--------------------------|
B  :-------------------------|--------------------------|
F# :-------------------------|--------------------------|
C# :5-0-8-0-5-0-7-0-0-0-0-7-0|5-0-8-0-7-0---8-8-8-8-10-0|
G# :--------------0-0-0-0----|------------8-8-8-8-8-----|
C# :--------------0-0-0-0----|--------------8-8-8-8-----|

C  :--------------------------|-----------------------------|
B  :-----------------------0-9|10-12-0-9-10-12--------------|
F# :--------------------------|-----------------------------|
C# :10-0-7-0-7-0---5-5-5-5----|----------------7-0-0-0-0-7-0|
G# :-------------8-5-5-5-5----|------------------0-0-0-0----|
C# :---------------5-5-5-5----|------------------0-0-0-0----|

C  :-------------------------|--------------------------|
B  :-------------------------|--------------------------|
F# :-------------------------|--------------------------|
C# :5-0-8-0-5-0-7-0-0-0-0-7-0|5-0-----------8-8-8-8-10-0|
G# :--------------0-0-0-0----|----8-0-7-0-8-8-8-8-8-----|
C# :--------------0-0-0-0----|--------------8-8-8-8-----|

C  :--------------------------|--------------------------|----------------|
B  :-----------------------0-9|10-12-0-9-10-12-----------|----------------|
F# :--------------------------|--------------------------|----------------|
C# :10-0-----------5-5-5-5----|----------------0---------|----------------|
G# :-----7-0-7-0-8-5-5-5-5----|----------------0---------|----------------|
C# :---------------5-5-5-5----|----------------0---------|----------------|

C  :-------------------|------------------|--------------------|
B  :-------------------|------------------|--------------------|
F# :-------------------|------------------|--------------------|
C# :------0-0*-0-0*-0-0|0-0*0*0*0*0*0*-0-0|0-0*0*-0-0*-0-0*-0-0|
G# :------0-0*-0-0*-0-0|0-0*0*0*0*0*0*-0-0|0-0*0*-0-0*-0-0*-0-0|
C# :------0-0*-0-0*-0-0|0-0*0*0*0*0*0*-0-0|0-0*0*-0-0*-0-0*-0-0|

C  :------------------|--------------------|------------------|
B  :------------------|--------------------|------------------|
F# :------------------|--------------------|------------------|
C# :0-0*0*0*0*0*0*-0-0|0-0*0*-0-0*-0-0*-0-0|0-0*0*0*0*0*0*-0-0|
G# :0-0*0*0*0*0*0*-0-0|0-0*0*-0-0*-0-0*-0-0|0-0*0*0*0*0*0*-0-0|
C# :0-0*0*0*0*0*0*-0-0|0-0*0*-0-0*-0-0*-0-0|0-0*0*0*0*0*0*-0-0|

C  :--------------------|------------------|--------------------------|
B  :--------------------|------------------|--------------------------|
F# :--------------------|------------------|--------------------------|
C# :0-0*0*-0-0*-0-0*-0-0|0-0*0*0*0*0*0*-0-0|0-0*0*--------------------|
G# :0-0*0*-0-0*-0-0*-0-0|0-0*0*0*0*0*0*-0-0|0-0*0*-5-5-5-5-7-7-7-7-5-5|
C# :0-0*0*-0-0*-0-0*-0-0|0-0*0*0*0*0*0*-0-0|0-0*0*--------------------|

C  :-------------------------------|-------------------------------|
B  :-------------------------------|-------------------------------|
F# :-------------------------------|-------------------------------|
C# :-------------------------------|------------8-8-8-8-7-7-7-7-5-5|
G# :5-5-8-8-8-8-7-7-7-7-4-4-4-4-7-7|7-7-4-4-4-4--------------------|
C# :-------------------------------|-------------------------------|

C  :-------------------------------|-------------------------|
B  :-------------------------------|-------------------------|
F# :-------------------------------|-------------------------|
C# :5-5---------7-7-7-7------------|------------0-0--0-0--0-0|
G# :----8-8-8-8---------8-8-8-8-7-7|7-7-4-4-4-4-0-0--0-0--0-0|
C# :-------------------------------|------------1-1--1-1--1-1|

C  :-----------------|----------------|
B  :-----------------|----------------|
F# :-----------------|----------------|
C# :0-0-0-0-0-0-0----|------0-*-------|
G# :0-0-0-0-0-0-0----|------0-*-------|
C# :1-1-1-1-1-1-1--2-|------0-*-------|
Tap to rate this tab
 
# A B C D E F G H I J K L M N O P Q R S T U V W X Y Z