Song name
# A B C D E F G H I J K L M N O P Q R S T U V W X Y Z

Misc Unsigned Bands - Dreamers Crime - Beyond The Horizon tab

-------------------------------------------------------------------------------
			     BEYOND THE HORIZON (intro) - Dreamer's Crime
-------------------------------------------------------------------------------
Tabbed by: Nicholas Corak
Email: n_corak@hotmail.com

Tuning: Standard

e|---------------------------------------------------------------------------|
B|--------5-----5-h6---------------------------------------------------------|
G|-----7-----7---------------------------------------------------------------|
D|---------------------------------------------------------------------------|
A|---------------------------------------------------------------------------|
E|---------------------------------------------------------------------------|

e|---------------------------------------------------------------------------|
B|--------5-----5-h6-----6-----8-----6-----5-----6-p5------------------------|
G|-----7-----7--------7-----7-----7-----7-----7------------------------------|
D|---------------------------------------------------------------------------|
A|---------------------------------------------------------------------------|
E|---------------------------------------------------------------------------|

e|---------------------------------------------------------------------------|
B|--------5-----5-h6-----6-----8-----6-----5-----6-p5------------------------|
G|-----5-----5--------5-----5-----5-----5-----5------------------------------|
D|---------------------------------------------------------------------------|
A|---------------------------------------------------------------------------|
E|---------------------------------------------------------------------------|


************************************
| h   hammer-on
| p   pull-off
************************************
Tap to rate this tab
 
# A B C D E F G H I J K L M N O P Q R S T U V W X Y Z