Misc Unsigned Bands - Louie Says - She tab

-----------------------------------------------------------------------------
			     She - Louie Says
-----------------------------------------------------------------------------
Tabbed by: Aidan
Email: ag182@hotmail.co.uk

Not 100% sure about all of this but it's as close as I could get (any corrections are 
more than welcome).
Also, sorry about the messy order but it's not hard to work out if you listen through 
the song.
Tuning: Standard (EADGBe)

Intro/Verse

  Strumming isn't hard to figure out.  (First three chords are then played again)
e|--------5------7------3------------2--2------------------------------------|
B|--------7------8------0------------0----3-0--------------------------------|
G|--------7------0------0------X3----0---------------------------------------|
D|--------0------0------0------------0---------------------------------------|
A|----------------------3------------2---------------------------------------|
E|---------------------------------------------------------------------------|

Chorus
e|------------------------2--------------------------------------------------|
B|---------3------5------3-------3-------------------------------------------|
G|--------0------0------0-------0--------------------------------------------|
D|-------4------4------2-------0---------------------------------------------|
A|------3------5--------------2----------------------------------------------|
E|---------------------------------------------------------------------------|

Verse 2
e|------5------7------3------------2--2----------1---------------------------|
B|------7------8------0------------0----3-0------1---------------------------|
G|------7------0------0------X3----0-------------2---------------------------|
D|------0------0------0------------0-------------3---------------------------|
A|--------------------3------------2-------------3---------------------------|
E|-----------------------------------------------1---------------------------|

Bridge (Just power chords to play over it)
e|---------------------------------------------------------------------------|
B|---------------------------------------------------------------------------|
G|------9----------6----------5----------------------------------------------|
D|------9--X8------6--X8------5----------------------------------------------|
A|------7----------4----------3----------------------------------------------|
E|---------------------------------------------------------------------------|
Tap to rate this tab
 
# A B C D E F G H I J K L M N O P Q R S T U V W X Y Z